  0
SECTION
  2
HEADER
  9
$ACADVER
  1
AC1009
  9
$INSBASE
 10
0.0
 20
0.0
 30
0.0
  9
$EXTMIN
 10
-21.475816895880332
 20
-65.768963514797505
 30
0.0
  9
$EXTMAX
 10
76.156684520292643
 20
40.475567719503147
 30
0.0
  9
$LIMMIN
 10
0.0
 20
0.0
  9
$LIMMAX
 10
12.0
 20
9.0
  9
$ORTHOMODE
 70
     0
  9
$REGENMODE
 70
     1
  9
$FILLMODE
 70
     1
  9
$QTEXTMODE
 70
     0
  9
$MIRRTEXT
 70
     0
  9
$DRAGMODE
 70
     2
  9
$LTSCALE
 40
1.0
  9
$OSMODE
 70
   127
  9
$ATTMODE
 70
     1
  9
$TEXTSIZE
 40
0.2
  9
$TRACEWID
 40
0.05
  9
$TEXTSTYLE
  7
STANDARD
  9
$CLAYER
  8
0
  9
$CELTYPE
  6
BYLAYER
  9
$CECOLOR
 62
   256
  9
$DIMSCALE
 40
1.0
  9
$DIMASZ
 40
0.18
  9
$DIMEXO
 40
0.0625
  9
$DIMDLI
 40
0.38
  9
$DIMRND
 40
0.0
  9
$DIMDLE
 40
0.0
  9
$DIMEXE
 40
0.18
  9
$DIMTP
 40
0.0
  9
$DIMTM
 40
0.0
  9
$DIMTXT
 40
0.18
  9
$DIMCEN
 40
0.09
  9
$DIMTSZ
 40
0.0
  9
$DIMTOL
 70
     0
  9
$DIMLIM
 70
     0
  9
$DIMTIH
 70
     1
  9
$DIMTOH
 70
     1
  9
$DIMSE1
 70
     0
  9
$DIMSE2
 70
     0
  9
$DIMTAD
 70
     0
  9
$DIMZIN
 70
     0
  9
$DIMBLK
  1

  9
$DIMASO
 70
     1
  9
$DIMSHO
 70
     1
  9
$DIMPOST
  1

  9
$DIMAPOST
  1

  9
$DIMALT
 70
     0
  9
$DIMALTD
 70
     2
  9
$DIMALTF
 40
25.399999999999999
  9
$DIMLFAC
 40
1.0
  9
$DIMTOFL
 70
     0
  9
$DIMTVP
 40
0.0
  9
$DIMTIX
 70
     0
  9
$DIMSOXD
 70
     0
  9
$DIMSAH
 70
     0
  9
$DIMBLK1
  1

  9
$DIMBLK2
  1

  9
$DIMSTYLE
  2
STANDARD
  9
$DIMCLRD
 70
     0
  9
$DIMCLRE
 70
     0
  9
$DIMCLRT
 70
     0
  9
$DIMTFAC
 40
1.0
  9
$DIMGAP
 40
0.09
  9
$LUNITS
 70
     2
  9
$LUPREC
 70
     4
  9
$SKETCHINC
 40
0.1
  9
$FILLETRAD
 40
0.0
  9
$AUNITS
 70
     0
  9
$AUPREC
 70
     0
  9
$MENU
  1
.
  9
$ELEVATION
 40
0.0
  9
$PELEVATION
 40
0.0
  9
$THICKNESS
 40
0.0
  9
$LIMCHECK
 70
     0
  9
$BLIPMODE
 70
     0
  9
$CHAMFERA
 40
0.0
  9
$CHAMFERB
 40
0.0
  9
$SKPOLY
 70
     0
  9
$TDCREATE
 40
2457375.5577107528
  9
$TDUPDATE
 40
2457378.9945888431
  9
$TDINDWG
 40
0.0001538079
  9
$TDUSRTIMER
 40
0.0001538079
  9
$USRTIMER
 70
     1
  9
$ANGBASE
 50
0.0
  9
$ANGDIR
 70
     0
  9
$PDMODE
 70
     0
  9
$PDSIZE
 40
0.0
  9
$PLINEWID
 40
0.0
  9
$COORDS
 70
     2
  9
$SPLFRAME
 70
     0
  9
$SPLINETYPE
 70
     6
  9
$SPLINESEGS
 70
     8
  9
$ATTDIA
 70
     0
  9
$ATTREQ
 70
     0
  9
$HANDLING
 70
     1
  9
$HANDSEED
  5
2A9
  9
$SURFTAB1
 70
     6
  9
$SURFTAB2
 70
     6
  9
$SURFTYPE
 70
     6
  9
$SURFU
 70
     6
  9
$SURFV
 70
     6
  9
$UCSNAME
  2

  9
$UCSORG
 10
0.0
 20
0.0
 30
0.0
  9
$UCSXDIR
 10
1.0
 20
0.0
 30
0.0
  9
$UCSYDIR
 10
0.0
 20
1.0
 30
0.0
  9
$PUCSNAME
  2

  9
$PUCSORG
 10
0.0
 20
0.0
 30
0.0
  9
$PUCSXDIR
 10
1.0
 20
0.0
 30
0.0
  9
$PUCSYDIR
 10
0.0
 20
1.0
 30
0.0
  9
$USERI1
 70
     0
  9
$USERI2
 70
     0
  9
$USERI3
 70
     0
  9
$USERI4
 70
     0
  9
$USERI5
 70
     0
  9
$USERR1
 40
0.0
  9
$USERR2
 40
0.0
  9
$USERR3
 40
0.0
  9
$USERR4
 40
0.0
  9
$USERR5
 40
0.0
  9
$WORLDVIEW
 70
     1
  9
$SHADEDGE
 70
     3
  9
$SHADEDIF
 70
    70
  9
$TILEMODE
 70
     1
  9
$MAXACTVP
 70
    64
  9
$PLIMCHECK
 70
     0
  9
$PEXTMIN
 10
0.0
 20
0.0
 30
0.0
  9
$PEXTMAX
 10
0.0
 20
0.0
 30
0.0
  9
$PLIMMIN
 10
0.0
 20
0.0
  9
$PLIMMAX
 10
12.0
 20
9.0
  9
$UNITMODE
 70
     0
  9
$VISRETAIN
 70
     1
  9
$PLINEGEN
 70
     0
  9
$PSLTSCALE
 70
     1
  0
ENDSEC
  0
SECTION
  2
TABLES
  0
TABLE
  2
VPORT
 70
     1
  0
VPORT
  2
*ACTIVE
 70
     0
 10
0.0
 20
0.0
 11
1.0
 21
1.0
 12
95.342118790115705
 22
-12.5371591307063
 13
0.0
 23
0.0
 14
1.0
 24
1.0
 15
0.0
 25
0.0
 16
0.0
 26
0.0
 36
1.0
 17
0.0
 27
0.0
 37
0.0
 40
86.694711962187753
 41
1.7244755244755241
 42
50.0
 43
0.0
 44
0.0
 50
0.0
 51
0.0
 71
     0
 72
  1000
 73
     1
 74
     3
 75
     0
 76
     0
 77
     0
 78
     0
  0
ENDTAB
  0
TABLE
  2
LTYPE
 70
     1
  0
LTYPE
  2
CONTINUOUS
 70
     0
  3
Solid line
 72
    65
 73
     0
 40
0.0
  0
ENDTAB
  0
TABLE
  2
LAYER
 70
     5
  0
LAYER
  2
0
 70
     0
 62
     7
  6
CONTINUOUS
  0
LAYER
  2
DEFPOINTS
 70
     0
 62
     7
  6
CONTINUOUS
  0
ENDTAB
  0
TABLE
  2
STYLE
 70
     3
  0
STYLE
  2
STANDARD
 70
     0
 40
0.0
 41
1.0
 50
0.0
 71
     0
 42
0.2
  3
txt
  4

  0
STYLE
  2
ARIAL
 70
     0
 40
2.9505988023952101
 41
1.0
 50
0.0
 71
     0
 42
0.2
  3
txt
  4

  0
ENDTAB
  0
TABLE
  2
VIEW
 70
     0
  0
ENDTAB
  0
TABLE
  2
UCS
 70
     0
  0
ENDTAB
  0
TABLE
  2
APPID
 70
     5
  0
APPID
  2
ACAD
 70
     0
  0
APPID
  2
ACADANNOTATIVE
 70
     0
  0
APPID
  2
REVIT
 70
     0
  0
APPID
  2
ACAD_NAV_VCDISPLAY
 70
     0
  0
APPID
  2
ACAD_MLEADERVER
 70
     0
  0
ENDTAB
  0
TABLE
  2
DIMSTYLE
 70
     3
  0
DIMSTYLE
  2
STANDARD
 70
     0
  3

  4

  5

  6

  7

 40
1.0
 41
0.18
 42
0.0625
 43
0.38
 44
0.18
 45
0.0
 46
0.0
 47
0.0
 48
0.0
140
0.18
141
0.09
142
0.0
143
25.399999999999999
144
1.0
145
0.0
146
1.0
147
0.09
 71
     0
 72
     0
 73
     1
 74
     1
 75
     0
 76
     0
 77
     0
 78
     0
170
     0
171
     2
172
     0
173
     0
174
     0
175
     0
176
     0
177
     0
178
     0
  0
DIMSTYLE
  2
LINEAR
 70
     0
  3
<>
  4

  5

  6
OBLIQUE
  7
OBLIQUE
 40
304.80000000000001
 41
0.0065616797900262
 42
0.0065616797900262
 43
0.38
 44
0.0065616797900262
 45
0.01
 46
0.0
 47
0.0
 48
0.0
140
3.0
141
0.09
142
0.0
143
25.399999999999999
144
1.0
145
1.0
146
1.0
147
0.0065616797900262
 71
     0
 72
     0
 73
     0
 74
     0
 75
     0
 76
     0
 77
     1
 78
     0
170
     0
171
     2
172
     1
173
     1
174
     1
175
     0
176
     0
177
     0
178
     0
  0
ENDTAB
  0
ENDSEC
  0
SECTION
  2
BLOCKS
  0
BLOCK
  8
0
  2
$MODEL_SPACE
 70
     0
 10
0.0
 20
0.0
 30
0.0
  3
$MODEL_SPACE
  1

  0
ENDBLK
  5
72
  8
0
  0
BLOCK
 67
     1
  8
0
  2
$PAPER_SPACE
 70
     0
 10
0.0
 20
0.0
 30
0.0
  3
$PAPER_SPACE
  1

  0
ENDBLK
  5
76
 67
     1
  8
0
  0
BLOCK
  8
0
  2
_OBLIQUE
 70
     0
 10
0.0
 20
0.0
 30
0.0
  3
_OBLIQUE
  1

  0
LINE
  5
A0
  8
0
  6
BYBLOCK
 62
     0
 10
-0.5
 20
-0.5
 30
0.0
 11
0.5
 21
0.5
 31
0.0
  0
ENDBLK
  5
A2
  8
0
  0
BLOCK
  8
0
  2
DIMBLOCK1-REF__LEVEL
 70
     0
 10
0.0
 20
0.0
 30
0.0
  3
DIMBLOCK1-REF__LEVEL
  1

  0
LINE
  5
1D4
  8
0
 62
     0
 10
-0.0000000000000001
 20
-64.354749952424413
 30
0.0
 11
-0.0000000000000002
 21
-65.768963514797505
 31
0.0
  0
LINE
  5
1D5
  8
0
 62
     0
 10
24.99999999999995
 20
-64.354749952424427
 30
0.0
 11
24.99999999999995
 21
-65.768963514797505
 31
0.0
  0
LINE
  5
1D6
  8
0
 62
     0
 10
-0.0000000000000001
 20
-63.768963514797498
 30
0.0
 11
24.99999999999995
 21
-63.768963514797498
 31
0.0
  0
INSERT
  5
1D7
  8
0
 62
     0
  2
_OBLIQUE
 10
-0.0000000000000001
 20
-63.768963514797498
 30
0.0
 41
2.0
 42
2.0
 43
2.0
 50
180.0
  0
INSERT
  5
1D8
  8
0
 62
     0
  2
_OBLIQUE
 10
24.99999999999995
 20
-63.768963514797498
 30
0.0
 41
2.0
 42
2.0
 43
2.0
  0
INSERT
  5
1D9
  8
0
  2
*U17
 10
0.0
 20
0.0
 30
0.0
  0
POINT
  5
1DA
  8
DEFPOINTS
 62
     0
 10
0.0
 20
-62.354749952424413
 30
0.0
  0
POINT
  5
1DB
  8
DEFPOINTS
 62
     0
 10
24.99999999999995
 20
-62.354749952424427
 30
0.0
  0
POINT
  5
1DC
  8
DEFPOINTS
 62
     0
 10
24.99999999999995
 20
-63.768963514797498
 30
0.0
  0
ENDBLK
  5
9D
  8
0
  0
BLOCK
  8
0
  2
DIMBLOCK2-REF__LEVEL
 70
     0
 10
0.0
 20
0.0
 30
0.0
  3
DIMBLOCK2-REF__LEVEL
  1

  0
LINE
  5
1CB
  8
0
 62
     0
 10
-14.281586112816999
 20
-49.999999999999979
 30
0.0
 11
-12.867372550443809
 21
-49.999999999999979
 31
0.0
  0
LINE
  5
1CC
  8
0
 62
     0
 10
-14.281586112816891
 20
-0.0000000000000006
 30
0.0
 11
-12.8673725504438
 21
-0.000000000000001
 31
0.0
  0
LINE
  5
1CD
  8
0
 62
     0
 10
-14.867372550443809
 20
-49.999999999999979
 30
0.0
 11
-14.8673725504438
 21
-0.0000000000000004
 31
0.0
  0
INSERT
  5
1CE
  8
0
 62
     0
  2
_OBLIQUE
 10
-14.867372550443809
 20
-49.999999999999979
 30
0.0
 41
2.0
 42
2.0
 43
2.0
 50
270.0
  0
INSERT
  5
1CF
  8
0
 62
     0
  2
_OBLIQUE
 10
-14.8673725504438
 20
-0.0000000000000004
 30
0.0
 41
2.0
 42
2.0
 43
2.0
 50
90.0
  0
INSERT
  5
1D0
  8
0
  2
*U16
 10
0.0
 20
0.0
 30
0.0
  0
POINT
  5
1D1
  8
DEFPOINTS
 62
     0
 10
-16.281586112816999
 20
-49.999999999999972
 30
0.0
  0
POINT
  5
1D2
  8
DEFPOINTS
 62
     0
 10
-16.281586112816889
 20
0.0
 30
0.0
  0
POINT
  5
1D3
  8
DEFPOINTS
 62
     0
 10
-14.8673725504438
 20
-0.0000000000000004
 30
0.0
  0
ENDBLK
  5
BE
  8
0
  0
BLOCK
  8
0
  2
DIMBLOCK3-REF__LEVEL
 70
     0
 10
0.0
 20
0.0
 30
0.0
  3
DIMBLOCK3-REF__LEVEL
  1

  0
LINE
  5
1C2
  8
0
 62
     0
 10
43.410694719978601
 20
19.99999999999984
 30
0.0
 11
41.996481157605437
 21
19.99999999999984
 31
0.0
  0
LINE
  5
1C3
  8
0
 62
     0
 10
43.410694719978629
 20
-0.000000000000004
 30
0.0
 11
41.996481157605437
 21
-0.0000000000000036
 31
0.0
  0
LINE
  5
1C4
  8
0
 62
     0
 10
43.996481157605437
 20
19.99999999999984
 30
0.0
 11
43.996481157605437
 21
-0.0000000000000041
 31
0.0
  0
INSERT
  5
1C5
  8
0
 62
     0
  2
_OBLIQUE
 10
43.996481157605437
 20
19.99999999999984
 30
0.0
 41
2.0
 42
2.0
 43
2.0
 50
90.0
  0
INSERT
  5
1C6
  8
0
 62
     0
  2
_OBLIQUE
 10
43.996481157605437
 20
-0.0000000000000041
 30
0.0
 41
2.0
 42
2.0
 43
2.0
 50
270.0
  0
INSERT
  5
1C7
  8
0
  2
*U15
 10
0.0
 20
0.0
 30
0.0
  0
POINT
  5
1C8
  8
DEFPOINTS
 62
     0
 10
45.410694719978601
 20
19.99999999999984
 30
0.0
  0
POINT
  5
1C9
  8
DEFPOINTS
 62
     0
 10
45.410694719978643
 20
-0.0000000000000045
 30
0.0
  0
POINT
  5
1CA
  8
DEFPOINTS
 62
     0
 10
43.996481157605437
 20
-0.0000000000000041
 30
0.0
  0
ENDBLK
  5
D8
  8
0
  0
BLOCK
  8
0
  2
DIMBLOCK4-REF__LEVEL
 70
     0
 10
0.0
 20
0.0
 30
0.0
  3
DIMBLOCK4-REF__LEVEL
  1

  0
LINE
  5
1B9
  8
0
 62
     0
 10
10.000000000000099
 20
33.28133693643975
 30
0.0
 11
10.000000000000099
 21
31.86712337406663
 31
0.0
  0
LINE
  5
1BA
  8
0
 62
     0
 10
25.00000000000011
 20
33.281336936439722
 30
0.0
 11
25.00000000000011
 21
31.86712337406663
 31
0.0
  0
LINE
  5
1BB
  8
0
 62
     0
 10
10.000000000000099
 20
33.867123374066622
 30
0.0
 11
25.00000000000011
 21
33.867123374066622
 31
0.0
  0
INSERT
  5
1BC
  8
0
 62
     0
  2
_OBLIQUE
 10
10.000000000000099
 20
33.867123374066622
 30
0.0
 41
2.0
 42
2.0
 43
2.0
 50
180.0
  0
INSERT
  5
1BD
  8
0
 62
     0
  2
_OBLIQUE
 10
25.00000000000011
 20
33.867123374066622
 30
0.0
 41
2.0
 42
2.0
 43
2.0
  0
INSERT
  5
1BE
  8
0
  2
*U14
 10
0.0
 20
0.0
 30
0.0
  0
POINT
  5
1BF
  8
DEFPOINTS
 62
     0
 10
10.000000000000099
 20
35.28133693643975
 30
0.0
  0
POINT
  5
1C0
  8
DEFPOINTS
 62
     0
 10
25.00000000000011
 20
35.281336936439722
 30
0.0
  0
POINT
  5
1C1
  8
DEFPOINTS
 62
     0
 10
25.00000000000011
 20
33.867123374066622
 30
0.0
  0
ENDBLK
  5
F2
  8
0
  0
BLOCK
  8
0
  2
DIMBLOCK5-REF__LEVEL
 70
     0
 10
0.0
 20
0.0
 30
0.0
  3
DIMBLOCK5-REF__LEVEL
  1

  0
LINE
  5
1AE
  8
0
 62
     0
 10
57.348338468847352
 20
19.999999999999801
 30
0.0
 11
55.934124906474231
 21
19.999999999999801
 31
0.0
  0
LINE
  5
1AF
  8
0
 62
     0
 10
57.348338468847331
 20
9.9999999999997957
 30
0.0
 11
55.934124906474231
 21
9.9999999999997957
 31
0.0
  0
LINE
  5
1B0
  8
0
 62
     0
 10
57.934124906474239
 20
19.999999999999801
 30
0.0
 11
57.934124906474239
 21
21.999999999999801
 31
0.0
  0
LINE
  5
1B1
  8
0
 62
     0
 10
57.934124906474231
 20
9.9999999999997957
 30
0.0
 11
57.934124906474231
 21
7.9999999999997948
 31
0.0
  0
LINE
  5
1B2
  8
0
 62
     0
 10
57.934124906474239
 20
19.999999999999801
 30
0.0
 11
57.934124906474231
 21
9.9999999999997957
 31
0.0
  0
INSERT
  5
1B3
  8
0
 62
     0
  2
_OBLIQUE
 10
57.934124906474239
 20
19.999999999999801
 30
0.0
 41
2.0
 42
2.0
 43
2.0
 50
270.0
  0
INSERT
  5
1B4
  8
0
 62
     0
  2
_OBLIQUE
 10
57.934124906474231
 20
9.9999999999997957
 30
0.0
 41
2.0
 42
2.0
 43
2.0
 50
90.0
  0
INSERT
  5
1B5
  8
0
  2
*U13
 10
0.0
 20
0.0
 30
0.0
  0
POINT
  5
1B6
  8
DEFPOINTS
 62
     0
 10
59.348338468847352
 20
19.999999999999801
 30
0.0
  0
POINT
  5
1B7
  8
DEFPOINTS
 62
     0
 10
59.348338468847317
 20
9.9999999999997957
 30
0.0
  0
POINT
  5
1B8
  8
DEFPOINTS
 62
     0
 10
57.934124906474231
 20
9.9999999999997957
 30
0.0
  0
ENDBLK
  5
10C
  8
0
  0
BLOCK
  8
0
  2
DIMBLOCK6-REF__LEVEL
 70
     0
 10
0.0
 20
0.0
 30
0.0
  3
DIMBLOCK6-REF__LEVEL
  1

  0
LINE
  5
1A3
  8
0
 62
     0
 10
57.348338468847331
 20
9.9999999999997957
 30
0.0
 11
55.934124906474203
 21
9.9999999999997957
 31
0.0
  0
LINE
  5
1A4
  8
0
 62
     0
 10
57.348338468847352
 20
-0.000000000000004
 30
0.0
 11
55.934124906474203
 21
-0.0000000000000036
 31
0.0
  0
LINE
  5
1A5
  8
0
 62
     0
 10
57.934124906474203
 20
9.9999999999997957
 30
0.0
 11
57.934124906474203
 21
11.99999999999979
 31
0.0
  0
LINE
  5
1A6
  8
0
 62
     0
 10
57.934124906474203
 20
-0.0000000000000041
 30
0.0
 11
57.934124906474203
 21
-2.000000000000004
 31
0.0
  0
LINE
  5
1A7
  8
0
 62
     0
 10
57.934124906474203
 20
9.9999999999997957
 30
0.0
 11
57.934124906474203
 21
-0.0000000000000041
 31
0.0
  0
INSERT
  5
1A8
  8
0
 62
     0
  2
_OBLIQUE
 10
57.934124906474203
 20
9.9999999999997957
 30
0.0
 41
2.0
 42
2.0
 43
2.0
 50
270.0
  0
INSERT
  5
1A9
  8
0
 62
     0
  2
_OBLIQUE
 10
57.934124906474203
 20
-0.0000000000000041
 30
0.0
 41
2.0
 42
2.0
 43
2.0
 50
90.0
  0
INSERT
  5
1AA
  8
0
  2
*U12
 10
0.0
 20
0.0
 30
0.0
  0
POINT
  5
1AB
  8
DEFPOINTS
 62
     0
 10
59.348338468847317
 20
9.9999999999997957
 30
0.0
  0
POINT
  5
1AC
  8
DEFPOINTS
 62
     0
 10
59.348338468847352
 20
-0.0000000000000045
 30
0.0
  0
POINT
  5
1AD
  8
DEFPOINTS
 62
     0
 10
57.934124906474203
 20
-0.0000000000000041
 30
0.0
  0
ENDBLK
  5
128
  8
0
  0
BLOCK
  8
0
  2
DIMBLOCK7-REF__LEVEL
 70
     0
 10
0.0
 20
0.0
 30
0.0
  3
DIMBLOCK7-REF__LEVEL
  1

  0
LINE
  5
198
  8
0
 62
     0
 10
73.570898082665764
 20
12.499999999999741
 30
0.0
 11
72.156684520292643
 21
12.499999999999741
 31
0.0
  0
LINE
  5
199
  8
0
 62
     0
 10
73.570898082665735
 20
9.9999999999997442
 30
0.0
 11
72.156684520292643
 21
9.9999999999997442
 31
0.0
  0
LINE
  5
19A
  8
0
 62
     0
 10
74.156684520292643
 20
12.499999999999741
 30
0.0
 11
74.156684520292643
 21
14.499999999999741
 31
0.0
  0
LINE
  5
19B
  8
0
 62
     0
 10
74.156684520292643
 20
9.9999999999997442
 30
0.0
 11
74.156684520292643
 21
7.9999999999997433
 31
0.0
  0
LINE
  5
19C
  8
0
 62
     0
 10
74.156684520292643
 20
12.499999999999741
 30
0.0
 11
74.156684520292643
 21
9.9999999999997442
 31
0.0
  0
INSERT
  5
19D
  8
0
 62
     0
  2
_OBLIQUE
 10
74.156684520292643
 20
12.499999999999741
 30
0.0
 41
2.0
 42
2.0
 43
2.0
 50
270.0
  0
INSERT
  5
19E
  8
0
 62
     0
  2
_OBLIQUE
 10
74.156684520292643
 20
9.9999999999997442
 30
0.0
 41
2.0
 42
2.0
 43
2.0
 50
90.0
  0
INSERT
  5
19F
  8
0
  2
*U11
 10
0.0
 20
0.0
 30
0.0
  0
POINT
  5
1A0
  8
DEFPOINTS
 62
     0
 10
75.570898082665764
 20
12.499999999999741
 30
0.0
  0
POINT
  5
1A1
  8
DEFPOINTS
 62
     0
 10
75.570898082665735
 20
9.9999999999997442
 30
0.0
  0
POINT
  5
1A2
  8
DEFPOINTS
 62
     0
 10
74.156684520292643
 20
9.9999999999997442
 30
0.0
  0
ENDBLK
  5
144
  8
0
  0
BLOCK
  8
0
  2
DIMBLOCK8-REF__LEVEL
 70
     0
 10
0.0
 20
0.0
 30
0.0
  3
DIMBLOCK8-REF__LEVEL
  1

  0
LINE
  5
18D
  8
0
 62
     0
 10
73.570898082665735
 20
9.9999999999997442
 30
0.0
 11
72.156684520292615
 21
9.9999999999997442
 31
0.0
  0
LINE
  5
18E
  8
0
 62
     0
 10
73.570898082665735
 20
7.4999999999997451
 30
0.0
 11
72.156684520292615
 21
7.4999999999997451
 31
0.0
  0
LINE
  5
18F
  8
0
 62
     0
 10
74.156684520292629
 20
9.9999999999997442
 30
0.0
 11
74.156684520292629
 21
11.999999999999741
 31
0.0
  0
LINE
  5
190
  8
0
 62
     0
 10
74.156684520292629
 20
7.4999999999997451
 30
0.0
 11
74.156684520292629
 21
5.4999999999997451
 31
0.0
  0
LINE
  5
191
  8
0
 62
     0
 10
74.156684520292629
 20
9.9999999999997442
 30
0.0
 11
74.156684520292629
 21
7.4999999999997451
 31
0.0
  0
INSERT
  5
192
  8
0
 62
     0
  2
_OBLIQUE
 10
74.156684520292629
 20
9.9999999999997442
 30
0.0
 41
2.0
 42
2.0
 43
2.0
 50
270.0
  0
INSERT
  5
193
  8
0
 62
     0
  2
_OBLIQUE
 10
74.156684520292629
 20
7.4999999999997451
 30
0.0
 41
2.0
 42
2.0
 43
2.0
 50
90.0
  0
INSERT
  5
194
  8
0
  2
*U10
 10
0.0
 20
0.0
 30
0.0
  0
POINT
  5
195
  8
DEFPOINTS
 62
     0
 10
75.570898082665735
 20
9.9999999999997442
 30
0.0
  0
POINT
  5
196
  8
DEFPOINTS
 62
     0
 10
75.570898082665735
 20
7.4999999999997451
 30
0.0
  0
POINT
  5
197
  8
DEFPOINTS
 62
     0
 10
74.156684520292629
 20
7.4999999999997451
 30
0.0
  0
ENDBLK
  5
160
  8
0
  0
BLOCK
  8
0
  2
*U10
 70
     1
 10
0.0
 20
0.0
 30
0.0
  3
*U10
  1

  0
TEXT
  5
28A
  8
0
 62
     0
 10
72.100329290778916
 20
4.776956319284789
 30
0.0
 40
2.9505988023952101
  1
2.50
 50
90.0
  7
ARIAL
  0
ENDBLK
  5
28C
  8
0
  0
BLOCK
  8
0
  2
*U11
 70
     1
 10
0.0
 20
0.0
 30
0.0
  3
*U11
  1

  0
TEXT
  5
28E
  8
0
 62
     0
 10
72.10032929077893
 20
7.2769563192847864
 30
0.0
 40
2.9505988023952101
  1
2.50
 50
90.0
  7
ARIAL
  0
ENDBLK
  5
290
  8
0
  0
BLOCK
  8
0
  2
*U12
 70
     1
 10
0.0
 20
0.0
 30
0.0
  3
*U12
  1

  0
TEXT
  5
292
  8
0
 62
     0
 10
55.877769676960519
 20
-0.2833027669082992
 30
0.0
 40
2.9505988023952101
  1
10.00
 50
90.0
  7
ARIAL
  0
ENDBLK
  5
294
  8
0
  0
BLOCK
  8
0
  2
*U13
 70
     1
 10
0.0
 20
0.0
 30
0.0
  3
*U13
  1

  0
TEXT
  5
296
  8
0
 62
     0
 10
55.87776967696054
 20
9.716697233091601
 30
0.0
 40
2.9505988023952101
  1
10.00
 50
90.0
  7
ARIAL
  0
ENDBLK
  5
298
  8
0
  0
BLOCK
  8
0
  2
*U14
 70
     1
 10
0.0
 20
0.0
 30
0.0
  3
*U14
  1

  0
TEXT
  5
29A
  8
0
 62
     0
 10
12.216697233091899
 20
35.923478603580307
 30
0.0
 40
2.9505988023952101
  1
15.00
  7
ARIAL
  0
ENDBLK
  5
29C
  8
0
  0
BLOCK
  8
0
  2
*U15
 70
     1
 10
0.0
 20
0.0
 30
0.0
  3
*U15
  1

  0
TEXT
  5
29E
  8
0
 62
     0
 10
41.940125928091753
 20
4.8807312047119211
 30
0.0
 40
2.9505988023952101
  1
20.00
 50
90.0
  7
ARIAL
  0
ENDBLK
  5
2A0
  8
0
  0
BLOCK
  8
0
  2
*U16
 70
     1
 10
0.0
 20
0.0
 30
0.0
  3
*U16
  1

  0
TEXT
  5
2A2
  8
0
 62
     0
 10
-16.923727779957488
 20
-30.144427379892331
 30
0.0
 40
2.9505988023952101
  1
50.00
 50
90.0
  7
ARIAL
  0
ENDBLK
  5
2A4
  8
0
  0
BLOCK
  8
0
  2
*U17
 70
     1
 10
0.0
 20
0.0
 30
0.0
  3
*U17
  1

  0
TEXT
  5
2A6
  8
0
 62
     0
 10
7.3807312047119646
 20
-61.712608285283821
 30
0.0
 40
2.9505988023952101
  1
25.00
  7
ARIAL
  0
ENDBLK
  5
2A8
  8
0
  0
ENDSEC
  0
SECTION
  2
ENTITIES
  0
LINE
  5
88
  8
0
 10
25.000000000000089
 20
12.49999999999998
 30
0.0
 11
25.00000000000006
 21
7.4999999999999796
 31
0.0
1001
REVIT
1002
{
1070
     1
1000
235866
1002
}
1002
{
1070
     2
1000
-2002000
1002
}
1002
{
1070
     3
1000
206785
1002
}
  0
LINE
  5
89
  8
0
 10
0.0000000000000227
 20
-50.0
 30
0.0
 11
-0.000000000000016
 21
0.0000000000000169
 31
0.0
1001
REVIT
1002
{
1070
     1
1000
235861
1002
}
1002
{
1070
     2
1000
-2002000
1002
}
1002
{
1070
     3
1000
206783
1002
}
  0
LINE
  5
8A
  8
0
 10
25.000000000000099
 20
19.999999999999911
 30
0.0
 11
25.00000000000005
 21
12.49999999999998
 31
0.0
1001
REVIT
1002
{
1070
     1
1000
235862
1002
}
1002
{
1070
     2
1000
-2002000
1002
}
1002
{
1070
     3
1000
206783
1002
}
  0
LINE
  5
8B
  8
0
 10
25.000000000000071
 20
7.499999999999984
 30
0.0
 11
25.00000000000005
 21
-0.0000000000000719
 31
0.0
1001
REVIT
1002
{
1070
     1
1000
235865
1002
}
1002
{
1070
     2
1000
-2002000
1002
}
1002
{
1070
     3
1000
206783
1002
}
  0
LINE
  5
8C
  8
0
 10
10.00000000000008
 20
19.99999999999995
 30
0.0
 11
25.000000000000099
 21
19.999999999999911
 31
0.0
1001
REVIT
1002
{
1070
     1
1000
235875
1002
}
1002
{
1070
     2
1000
-2002000
1002
}
1002
{
1070
     3
1000
206783
1002
}
  0
LINE
  5
8D
  8
0
 10
-0.0000000000000159
 20
0.0000000000000087
 30
0.0
 11
25.00000000000005
 21
-0.000000000000072
 31
0.0
1001
REVIT
1002
{
1070
     1
1000
235879
1002
}
1002
{
1070
     2
1000
-2002000
1002
}
1002
{
1070
     3
1000
206783
1002
}
  0
ENDSEC
  0
EOF
