  0
SECTION
  2
HEADER
  9
$ACADVER
  1
AC1009
  9
$INSBASE
 10
0.0
 20
0.0
 30
0.0
  9
$EXTMIN
 10
-349.99961451020368
 20
-334.99999999999989
 30
0.0
  9
$EXTMAX
 10
53.500385489796258
 20
623.13065449519854
 30
0.0
  9
$LIMMIN
 10
0.0
 20
0.0
  9
$LIMMAX
 10
12.0
 20
9.0
  9
$ORTHOMODE
 70
     0
  9
$REGENMODE
 70
     1
  9
$FILLMODE
 70
     1
  9
$QTEXTMODE
 70
     0
  9
$MIRRTEXT
 70
     0
  9
$DRAGMODE
 70
     2
  9
$LTSCALE
 40
1.0
  9
$OSMODE
 70
   127
  9
$ATTMODE
 70
     1
  9
$TEXTSIZE
 40
0.2
  9
$TRACEWID
 40
0.05
  9
$TEXTSTYLE
  7
STANDARD
  9
$CLAYER
  8
0
  9
$CELTYPE
  6
BYLAYER
  9
$CECOLOR
 62
   256
  9
$DIMSCALE
 40
1.0
  9
$DIMASZ
 40
0.18
  9
$DIMEXO
 40
0.0625
  9
$DIMDLI
 40
0.38
  9
$DIMRND
 40
0.0
  9
$DIMDLE
 40
0.0
  9
$DIMEXE
 40
0.18
  9
$DIMTP
 40
0.0
  9
$DIMTM
 40
0.0
  9
$DIMTXT
 40
0.18
  9
$DIMCEN
 40
0.09
  9
$DIMTSZ
 40
0.0
  9
$DIMTOL
 70
     0
  9
$DIMLIM
 70
     0
  9
$DIMTIH
 70
     1
  9
$DIMTOH
 70
     1
  9
$DIMSE1
 70
     0
  9
$DIMSE2
 70
     0
  9
$DIMTAD
 70
     0
  9
$DIMZIN
 70
     0
  9
$DIMBLK
  1

  9
$DIMASO
 70
     1
  9
$DIMSHO
 70
     1
  9
$DIMPOST
  1

  9
$DIMAPOST
  1

  9
$DIMALT
 70
     0
  9
$DIMALTD
 70
     2
  9
$DIMALTF
 40
25.399999999999999
  9
$DIMLFAC
 40
1.0
  9
$DIMTOFL
 70
     0
  9
$DIMTVP
 40
0.0
  9
$DIMTIX
 70
     0
  9
$DIMSOXD
 70
     0
  9
$DIMSAH
 70
     0
  9
$DIMBLK1
  1

  9
$DIMBLK2
  1

  9
$DIMSTYLE
  2
STANDARD
  9
$DIMCLRD
 70
     0
  9
$DIMCLRE
 70
     0
  9
$DIMCLRT
 70
     0
  9
$DIMTFAC
 40
1.0
  9
$DIMGAP
 40
0.09
  9
$LUNITS
 70
     2
  9
$LUPREC
 70
     4
  9
$SKETCHINC
 40
0.1
  9
$FILLETRAD
 40
0.0
  9
$AUNITS
 70
     0
  9
$AUPREC
 70
     0
  9
$MENU
  1
.
  9
$ELEVATION
 40
0.0
  9
$PELEVATION
 40
0.0
  9
$THICKNESS
 40
0.0
  9
$LIMCHECK
 70
     0
  9
$BLIPMODE
 70
     0
  9
$CHAMFERA
 40
0.0
  9
$CHAMFERB
 40
0.0
  9
$SKPOLY
 70
     0
  9
$TDCREATE
 40
2457375.5589739238
  9
$TDUPDATE
 40
2457378.9923021072
  9
$TDINDWG
 40
0.0001158333
  9
$TDUSRTIMER
 40
0.0001158333
  9
$USRTIMER
 70
     1
  9
$ANGBASE
 50
0.0
  9
$ANGDIR
 70
     0
  9
$PDMODE
 70
     0
  9
$PDSIZE
 40
0.0
  9
$PLINEWID
 40
0.0
  9
$COORDS
 70
     2
  9
$SPLFRAME
 70
     0
  9
$SPLINETYPE
 70
     6
  9
$SPLINESEGS
 70
     8
  9
$ATTDIA
 70
     0
  9
$ATTREQ
 70
     0
  9
$HANDLING
 70
     1
  9
$HANDSEED
  5
1A1
  9
$SURFTAB1
 70
     6
  9
$SURFTAB2
 70
     6
  9
$SURFTYPE
 70
     6
  9
$SURFU
 70
     6
  9
$SURFV
 70
     6
  9
$UCSNAME
  2

  9
$UCSORG
 10
0.0
 20
0.0
 30
0.0
  9
$UCSXDIR
 10
1.0
 20
0.0
 30
0.0
  9
$UCSYDIR
 10
0.0
 20
1.0
 30
0.0
  9
$PUCSNAME
  2

  9
$PUCSORG
 10
0.0
 20
0.0
 30
0.0
  9
$PUCSXDIR
 10
1.0
 20
0.0
 30
0.0
  9
$PUCSYDIR
 10
0.0
 20
1.0
 30
0.0
  9
$USERI1
 70
     0
  9
$USERI2
 70
     0
  9
$USERI3
 70
     0
  9
$USERI4
 70
     0
  9
$USERI5
 70
     0
  9
$USERR1
 40
0.0
  9
$USERR2
 40
0.0
  9
$USERR3
 40
0.0
  9
$USERR4
 40
0.0
  9
$USERR5
 40
0.0
  9
$WORLDVIEW
 70
     1
  9
$SHADEDGE
 70
     3
  9
$SHADEDIF
 70
    70
  9
$TILEMODE
 70
     1
  9
$MAXACTVP
 70
    64
  9
$PLIMCHECK
 70
     0
  9
$PEXTMIN
 10
0.0
 20
0.0
 30
0.0
  9
$PEXTMAX
 10
0.0
 20
0.0
 30
0.0
  9
$PLIMMIN
 10
0.0
 20
0.0
  9
$PLIMMAX
 10
12.0
 20
9.0
  9
$UNITMODE
 70
     0
  9
$VISRETAIN
 70
     1
  9
$PLINEGEN
 70
     0
  9
$PSLTSCALE
 70
     1
  0
ENDSEC
  0
SECTION
  2
TABLES
  0
TABLE
  2
VPORT
 70
     1
  0
VPORT
  2
*ACTIVE
 70
     0
 10
0.0
 20
0.0
 11
1.0
 21
1.0
 12
714.28124590644654
 22
144.0653272475993
 13
0.0
 23
0.0
 14
1.0
 24
1.0
 15
0.0
 25
0.0
 16
0.0
 26
0.0
 36
1.0
 17
0.0
 27
0.0
 37
0.0
 40
795.15595998540323
 41
1.7244755244755241
 42
50.0
 43
0.0
 44
0.0
 50
0.0
 51
0.0
 71
     0
 72
  1000
 73
     1
 74
     3
 75
     0
 76
     0
 77
     0
 78
     0
  0
ENDTAB
  0
TABLE
  2
LTYPE
 70
     2
  0
LTYPE
  2
CONTINUOUS
 70
     0
  3
Solid line
 72
    65
 73
     0
 40
0.0
  0
LTYPE
  2
DASH
 70
     0
  3

 72
    65
 73
     2
 40
6.3499999999999988
 49
3.1749999999999989
 49
-3.1749999999999989
  0
ENDTAB
  0
TABLE
  2
LAYER
 70
     3
  0
LAYER
  2
0
 70
     0
 62
     7
  6
CONTINUOUS
  0
ENDTAB
  0
TABLE
  2
STYLE
 70
     2
  0
STYLE
  2
STANDARD
 70
     0
 40
0.0
 41
1.0
 50
0.0
 71
     0
 42
0.2
  3
txt
  4

  0
ENDTAB
  0
TABLE
  2
VIEW
 70
     0
  0
ENDTAB
  0
TABLE
  2
UCS
 70
     0
  0
ENDTAB
  0
TABLE
  2
APPID
 70
     5
  0
APPID
  2
ACAD
 70
     0
  0
APPID
  2
ACADANNOTATIVE
 70
     0
  0
APPID
  2
REVIT
 70
     0
  0
APPID
  2
ACAD_NAV_VCDISPLAY
 70
     0
  0
APPID
  2
ACAD_MLEADERVER
 70
     0
  0
ENDTAB
  0
TABLE
  2
DIMSTYLE
 70
     2
  0
DIMSTYLE
  2
STANDARD
 70
     0
  3

  4

  5

  6

  7

 40
1.0
 41
0.18
 42
0.0625
 43
0.38
 44
0.18
 45
0.0
 46
0.0
 47
0.0
 48
0.0
140
0.18
141
0.09
142
0.0
143
25.399999999999999
144
1.0
145
0.0
146
1.0
147
0.09
 71
     0
 72
     0
 73
     1
 74
     1
 75
     0
 76
     0
 77
     0
 78
     0
170
     0
171
     2
172
     0
173
     0
174
     0
175
     0
176
     0
177
     0
178
     0
  0
ENDTAB
  0
ENDSEC
  0
SECTION
  2
BLOCKS
  0
BLOCK
  8
0
  2
$MODEL_SPACE
 70
     0
 10
0.0
 20
0.0
 30
0.0
  3
$MODEL_SPACE
  1

  0
ENDBLK
  5
72
  8
0
  0
BLOCK
 67
     1
  8
0
  2
$PAPER_SPACE
 70
     0
 10
0.0
 20
0.0
 30
0.0
  3
$PAPER_SPACE
  1

  0
ENDBLK
  5
76
 67
     1
  8
0
  0
ENDSEC
  0
SECTION
  2
ENTITIES
  0
LINE
  5
88
  8
0
 10
53.500385489796251
 20
40.000000000000107
 30
0.0
 11
53.500385489796251
 21
-334.99999999999989
 31
0.0
1001
REVIT
1002
{
1070
     1
1000
337804
1002
}
1002
{
1070
     2
1000
-2002000
1002
}
  0
LINE
  5
89
  8
0
 10
53.500385489796251
 20
-334.99999999999989
 30
0.0
 11
43.500385489796251
 21
-334.99999999999989
 31
0.0
1001
REVIT
1002
{
1070
     1
1000
337805
1002
}
1002
{
1070
     2
1000
-2002000
1002
}
  0
LINE
  5
8A
  8
0
 10
43.500385489796251
 20
-334.99999999999989
 30
0.0
 11
43.500385489796251
 21
30.000000000000149
 31
0.0
1001
REVIT
1002
{
1070
     1
1000
337806
1002
}
1002
{
1070
     2
1000
-2002000
1002
}
  0
LINE
  5
8B
  8
0
 10
43.500385489796251
 20
30.00000000000016
 30
0.0
 11
53.500385489796258
 21
40.000000000000142
 31
0.0
1001
REVIT
1002
{
1070
     1
1000
337807
1002
}
1002
{
1070
     2
1000
-2002000
1002
}
  0
LINE
  5
8C
  8
0
 10
53.500385489796251
 20
40.000000000000107
 30
0.0
 11
-53.499614510203749
 21
40.000000000000107
 31
0.0
1001
REVIT
1002
{
1070
     1
1000
337808
1002
}
1002
{
1070
     2
1000
-2002000
1002
}
  0
LINE
  5
8D
  8
0
 10
-53.499614510203749
 20
40.000000000000107
 30
0.0
 11
-53.499614510203749
 21
-334.99999999999989
 31
0.0
1001
REVIT
1002
{
1070
     1
1000
337809
1002
}
1002
{
1070
     2
1000
-2002000
1002
}
  0
LINE
  5
8E
  8
0
 10
-53.499614510203749
 20
-334.99999999999989
 30
0.0
 11
-43.499614510203742
 21
-334.99999999999989
 31
0.0
1001
REVIT
1002
{
1070
     1
1000
337810
1002
}
1002
{
1070
     2
1000
-2002000
1002
}
  0
LINE
  5
8F
  8
0
 10
-43.499614510203742
 20
-334.99999999999989
 30
0.0
 11
-43.499614510203742
 21
30.000000000000149
 31
0.0
1001
REVIT
1002
{
1070
     1
1000
337811
1002
}
1002
{
1070
     2
1000
-2002000
1002
}
  0
LINE
  5
90
  8
0
 10
-43.499614510203742
 20
30.000000000000139
 30
0.0
 11
43.500385489796251
 21
30.000000000000139
 31
0.0
1001
REVIT
1002
{
1070
     1
1000
337812
1002
}
1002
{
1070
     2
1000
-2002000
1002
}
  0
LINE
  5
91
  8
0
 10
43.500385489796251
 20
-334.99999999999989
 30
0.0
 11
23.500385489796258
 21
-334.99999999999989
 31
0.0
1001
REVIT
1002
{
1070
     1
1000
337813
1002
}
1002
{
1070
     2
1000
-2002000
1002
}
  0
LINE
  5
92
  8
0
 10
23.500385489796258
 20
-334.99999999999989
 30
0.0
 11
23.500385489796258
 21
-9.9999999999999591
 31
0.0
1001
REVIT
1002
{
1070
     1
1000
337814
1002
}
1002
{
1070
     2
1000
-2002000
1002
}
1002
{
1070
     3
1000
206783
1002
}
  0
LINE
  5
93
  8
0
 10
23.500385489796258
 20
-9.9999999999999343
 30
0.0
 11
-23.499614510203731
 21
-9.9999999999999343
 31
0.0
1001
REVIT
1002
{
1070
     1
1000
337815
1002
}
1002
{
1070
     2
1000
-2002000
1002
}
1002
{
1070
     3
1000
206783
1002
}
  0
LINE
  5
94
  8
0
 10
-23.499614510203742
 20
-9.9999999999999343
 30
0.0
 11
-23.499614510203742
 21
-334.99999999999989
 31
0.0
1001
REVIT
1002
{
1070
     1
1000
337816
1002
}
1002
{
1070
     2
1000
-2002000
1002
}
1002
{
1070
     3
1000
206783
1002
}
  0
LINE
  5
95
  8
0
 10
-23.499614510203742
 20
-334.99999999999989
 30
0.0
 11
-43.499614510203742
 21
-334.99999999999989
 31
0.0
1001
REVIT
1002
{
1070
     1
1000
337817
1002
}
1002
{
1070
     2
1000
-2002000
1002
}
  0
LINE
  5
96
  8
0
 10
-43.499614510203742
 20
30.000000000000149
 30
0.0
 11
-53.499614510203678
 21
40.000000000000121
 31
0.0
1001
REVIT
1002
{
1070
     1
1000
337818
1002
}
1002
{
1070
     2
1000
-2002000
1002
}
  0
LINE
  5
97
  8
0
 10
-346.99961451020368
 20
30.000000000000739
 30
0.0
 11
-346.99961451020368
 21
40.000000000000732
 31
0.0
1001
REVIT
1002
{
1070
     1
1000
337819
1002
}
1002
{
1070
     2
1000
-2002000
1002
}
1002
{
1070
     3
1000
206783
1002
}
  0
LINE
  5
98
  8
0
 10
-346.99961451020368
 20
40.000000000000732
 30
0.0
 11
-349.99961451020368
 21
40.000000000000732
 31
0.0
1001
REVIT
1002
{
1070
     1
1000
337820
1002
}
1002
{
1070
     2
1000
-2002000
1002
}
1002
{
1070
     3
1000
206783
1002
}
  0
LINE
  5
99
  8
0
 10
-349.99961451020368
 20
40.000000000000732
 30
0.0
 11
-349.99961451020368
 21
-9.9999999999999343
 31
0.0
1001
REVIT
1002
{
1070
     1
1000
337821
1002
}
1002
{
1070
     2
1000
-2002000
1002
}
1002
{
1070
     3
1000
206783
1002
}
  0
LINE
  5
9A
  8
0
 10
-349.99961451020368
 20
-9.9999999999999343
 30
0.0
 11
-279.99961451020368
 21
-9.9999999999999343
 31
0.0
1001
REVIT
1002
{
1070
     1
1000
337822
1002
}
1002
{
1070
     2
1000
-2002000
1002
}
1002
{
1070
     3
1000
206783
1002
}
  0
LINE
  5
9B
  8
0
 10
-279.99961451020368
 20
-9.9999999999999343
 30
0.0
 11
-279.99961451020368
 21
-334.9999999999992
 31
0.0
1001
REVIT
1002
{
1070
     1
1000
337823
1002
}
1002
{
1070
     2
1000
-2002000
1002
}
  0
LINE
  5
9C
  8
0
 10
-279.99961451020368
 20
-334.9999999999992
 30
0.0
 11
-349.99961451020368
 21
-334.9999999999992
 31
0.0
1001
REVIT
1002
{
1070
     1
1000
337824
1002
}
1002
{
1070
     2
1000
-2002000
1002
}
  0
LINE
  5
9D
  8
0
 10
-349.99961451020368
 20
-334.9999999999992
 30
0.0
 11
-349.99961451020368
 21
-9.9999999999999591
 31
0.0
1001
REVIT
1002
{
1070
     1
1000
337825
1002
}
1002
{
1070
     2
1000
-2002000
1002
}
  0
LINE
  5
9E
  8
0
 10
-200.5812047468969
 20
618.11715565765076
 30
0.0
 11
-122.7994588163769
 21
573.20984370662575
 31
0.0
1001
REVIT
1002
{
1070
     1
1000
337826
1002
}
1002
{
1070
     2
1000
-2002000
1002
}
  0
LINE
  5
9F
  8
0
 10
-122.7994588163768
 20
573.20984370662575
 30
0.0
 11
-120.6781384728171
 21
574.43458857801727
 31
0.0
1001
REVIT
1002
{
1070
     1
1000
337827
1002
}
1002
{
1070
     2
1000
-2002000
1002
}
  0
LINE
  5
A0
  8
0
 10
-120.6781384728171
 20
574.43458857801727
 30
0.0
 11
-198.45988440333721
 21
619.34190052904216
 31
0.0
1001
REVIT
1002
{
1070
     1
1000
337828
1002
}
1002
{
1070
     2
1000
-2002000
1002
}
  0
LINE
  5
A1
  8
0
 10
-122.7994588163768
 20
573.20984370662575
 30
0.0
 11
-122.7994588163768
 21
197.38501466023939
 31
0.0
1001
REVIT
1002
{
1070
     1
1000
337829
1002
}
1002
{
1070
     2
1000
-2002000
1002
}
  0
LINE
  5
A2
  8
0
 10
-122.7994588163768
 20
197.38501466023931
 30
0.0
 11
-129.8705266282424
 21
201.46749756487799
 31
0.0
1001
REVIT
1002
{
1070
     1
1000
337830
1002
}
1002
{
1070
     2
1000
-2002000
1002
}
  0
LINE
  5
A3
  8
0
 10
-129.8705266282424
 20
201.46749756487799
 30
0.0
 11
-129.8705266282424
 21
569.12736080198715
 31
0.0
1001
REVIT
1002
{
1070
     1
1000
337831
1002
}
1002
{
1070
     2
1000
-2002000
1002
}
  0
LINE
  5
A4
  8
0
 10
-129.8705266282424
 20
569.12736080198715
 30
0.0
 11
-193.5101369350314
 21
605.86970694373485
 31
0.0
1001
REVIT
1002
{
1070
     1
1000
337832
1002
}
1002
{
1070
     2
1000
-2002000
1002
}
  0
LINE
  5
A5
  8
0
 10
-193.5101369350314
 20
605.86970694373485
 30
0.0
 11
-193.5101369350314
 21
556.87991208807102
 31
0.0
1001
REVIT
1002
{
1070
     1
1000
337833
1002
}
1002
{
1070
     2
1000
-2002000
1002
}
  0
LINE
  5
A6
  8
0
 10
-200.5812047468969
 20
552.79742918343231
 30
0.0
 11
-200.5812047468969
 21
618.11715565765076
 31
0.0
1001
REVIT
1002
{
1070
     1
1000
337834
1002
}
1002
{
1070
     2
1000
-2002000
1002
}
  0
LINE
  5
A7
  8
0
 10
-200.5812047468969
 20
618.11715565765076
 30
0.0
 11
-198.4598844033373
 21
619.34190052904216
 31
0.0
1001
REVIT
1002
{
1070
     1
1000
337835
1002
}
1002
{
1070
     2
1000
-2002000
1002
}
  0
LINE
  5
A8
  8
0
 10
-198.45988440333721
 20
619.34190052904228
 30
0.0
 11
-120.6781384728171
 21
574.43458857801727
 31
0.0
1001
REVIT
1002
{
1070
     1
1000
337836
1002
}
1002
{
1070
     2
1000
-2002000
1002
}
  0
LINE
  5
A9
  8
0
 10
-120.6781384728171
 20
574.43458857801727
 30
0.0
 11
-120.6781384728171
 21
198.60975953163091
 31
0.0
1001
REVIT
1002
{
1070
     1
1000
337837
1002
}
1002
{
1070
     2
1000
-2002000
1002
}
  0
LINE
  5
AA
  8
0
 10
-120.6781384728171
 20
198.60975953163091
 30
0.0
 11
-122.7994588163769
 21
197.38501466023939
 31
0.0
1001
REVIT
1002
{
1070
     1
1000
337838
1002
}
1002
{
1070
     2
1000
-2002000
1002
}
  0
LINE
  5
AB
  8
0
 10
-120.6781384728171
 20
574.43458857801727
 30
0.0
 11
-120.6781384728171
 21
198.60975953163091
 31
0.0
1001
REVIT
1002
{
1070
     1
1000
337839
1002
}
1002
{
1070
     2
1000
-2002000
1002
}
  0
LINE
  5
AC
  8
0
 10
-129.8705266282424
 20
203.91698730766109
 30
0.0
 11
-141.89134190841369
 21
210.85720824554679
 31
0.0
1001
REVIT
1002
{
1070
     1
1000
337840
1002
}
1002
{
1070
     2
1000
-2002000
1002
}
  0
LINE
  5
AD
  8
0
 10
-141.89134190841369
 20
210.85720824554679
 30
0.0
 11
-141.89134190841369
 21
545.85720824554699
 31
0.0
1001
REVIT
1002
{
1070
     1
1000
337841
1002
}
1002
{
1070
     2
1000
-2002000
1002
}
  0
LINE
  5
AE
  8
0
 10
-141.89134190841369
 20
545.85720824554699
 30
0.0
 11
-177.24668096774059
 21
566.26962276873985
 31
0.0
1001
REVIT
1002
{
1070
     1
1000
337842
1002
}
1002
{
1070
     2
1000
-2002000
1002
}
  0
LINE
  5
AF
  8
0
 10
-177.24668096774059
 20
566.26962276873985
 30
0.0
 11
-141.89134190841361
 21
545.85720824554699
 31
0.0
1001
REVIT
1002
{
1070
     1
1000
337843
1002
}
1002
{
1070
     2
1000
-2002000
1002
}
  0
LINE
  5
B0
  8
0
 10
-141.89134190841369
 20
210.85720824554679
 30
0.0
 11
-191.38881659147211
 21
182.2798279130765
 31
0.0
1001
REVIT
1002
{
1070
     1
1000
337844
1002
}
1002
{
1070
     2
1000
-2002000
1002
}
  0
LINE
  5
B1
  8
0
 10
-191.38881659147211
 20
517.27982791307647
 30
0.0
 11
-191.38881659147211
 21
182.2798279130765
 31
0.0
1001
REVIT
1002
{
1070
     1
1000
337845
1002
}
1002
{
1070
     2
1000
-2002000
1002
}
  0
LINE
  5
B2
  8
0
 10
-177.24668096774059
 20
566.26962276873985
 30
0.0
 11
-226.744155650799
 21
537.69224243626957
 31
0.0
1001
REVIT
1002
{
1070
     1
1000
337846
1002
}
1002
{
1070
     2
1000
-2002000
1002
}
  0
LINE
  5
B3
  8
0
 10
-226.744155650799
 20
537.69224243626957
 30
0.0
 11
-191.38881659147211
 21
517.27982791307647
 31
0.0
1001
REVIT
1002
{
1070
     1
1000
337847
1002
}
1002
{
1070
     2
1000
-2002000
1002
}
  0
LINE
  5
B4
  8
0
 10
-141.89134190841361
 20
545.85720824554699
 30
0.0
 11
-141.89134190841361
 21
210.8572082455467
 31
0.0
1001
REVIT
1002
{
1070
     1
1000
337848
1002
}
1002
{
1070
     2
1000
-2002000
1002
}
  0
LINE
  5
B5
  8
0
 10
-191.38881659147211
 20
223.1046569594626
 30
0.0
 11
-226.74415565079951
 21
202.69224243626959
 31
0.0
1001
REVIT
1002
{
1070
     1
1000
337849
1002
}
1002
{
1070
     2
1000
-2002000
1002
}
  0
LINE
  5
B6
  8
0
 10
-226.74415565079951
 20
202.69224243626959
 30
0.0
 11
-226.74415565079951
 21
537.69224243626945
 31
0.0
1001
REVIT
1002
{
1070
     1
1000
337850
1002
}
1002
{
1070
     2
1000
-2002000
1002
}
  0
LINE
  5
B9
  8
0
 10
-76.546273610624695
 20
323.13021547360358
 30
0.0
 11
-76.546273610624695
 21
623.13065449519854
 31
0.0
1001
REVIT
1002
{
1070
     1
1000
337851
1002
}
1002
{
1070
     2
1000
-2002000
1002
}
1002
{
1070
     3
1000
-2009514
1002
}
  0
LINE
  5
BA
  8
0
 10
-76.546273610624709
 20
623.13065449519854
 30
0.0
 11
-42.298420473198171
 21
603.3572082455438
 31
0.0
1001
REVIT
1002
{
1070
     1
1000
337852
1002
}
1002
{
1070
     2
1000
-2002000
1002
}
1002
{
1070
     3
1000
-2009514
1002
}
  0
LINE
  5
BB
  8
0
 10
-42.298420473198057
 20
603.3572082455438
 30
0.0
 11
-290.98173802668362
 21
459.77982791307778
 31
0.0
1001
REVIT
1002
{
1070
     1
1000
337853
1002
}
1002
{
1070
     2
1000
-2002000
1002
}
1002
{
1070
     3
1000
-2009514
1002
}
  0
LINE
  5
BC
  8
0
 10
-290.98173802668259
 20
459.7798279130771
 30
0.0
 11
-290.98173802668259
 21
159.77982791307821
 31
0.0
1001
REVIT
1002
{
1070
     1
1000
337854
1002
}
1002
{
1070
     2
1000
-2002000
1002
}
1002
{
1070
     3
1000
-2009514
1002
}
  0
LINE
  5
BD
  8
0
 10
-325.22883077328498
 20
179.55327415298521
 30
0.0
 11
-76.546273610624695
 21
323.13021547360358
 31
0.0
1001
REVIT
1002
{
1070
     1
1000
337855
1002
}
1002
{
1070
     2
1000
-2002000
1002
}
1002
{
1070
     3
1000
-2009514
1002
}
  0
LINE
  5
BE
  8
0
 10
-290.98173802668362
 20
459.77982791307772
 30
0.0
 11
-325.22959116410999
 21
479.55283514113779
 31
0.0
1001
REVIT
1002
{
1070
     1
1000
337856
1002
}
1002
{
1070
     2
1000
-2002000
1002
}
1002
{
1070
     3
1000
-2009514
1002
}
  0
LINE
  5
BF
  8
0
 10
-325.22959116410999
 20
479.55283514113779
 30
0.0
 11
-76.54560177874329
 21
623.13060335592138
 31
0.0
1001
REVIT
1002
{
1070
     1
1000
337857
1002
}
1002
{
1070
     2
1000
-2002000
1002
}
1002
{
1070
     3
1000
-2009514
1002
}
  0
LINE
  5
C0
  8
0
 10
-325.22807038245992
 20
179.5537131648328
 30
0.0
 11
-325.22807038245992
 21
479.55283514113768
 31
0.0
1001
REVIT
1002
{
1070
     1
1000
337858
1002
}
1002
{
1070
     2
1000
-2002000
1002
}
1002
{
1070
     3
1000
-2009514
1002
}
  0
LINE
  5
C1
  8
0
 10
-42.29842047319805
 20
603.3572082455438
 30
0.0
 11
-42.29842047319805
 21
303.35720824554369
 31
0.0
1001
REVIT
1002
{
1070
     1
1000
337859
1002
}
1002
{
1070
     2
1000
-2002000
1002
}
1002
{
1070
     3
1000
-2009514
1002
}
  0
LINE
  5
C2
  8
0
 10
-42.298420473198057
 20
303.35720824554369
 30
0.0
 11
-191.38881659147211
 21
217.27982791307511
 31
0.0
1001
REVIT
1002
{
1070
     1
1000
337860
1002
}
1002
{
1070
     2
1000
-2002000
1002
}
1002
{
1070
     3
1000
-2009514
1002
}
  0
LINE
  5
C3
  8
0
 10
-193.5101369350314
 20
605.86970694373485
 30
0.0
 11
-200.58120474689679
 21
618.11715565765076
 31
0.0
1001
REVIT
1002
{
1070
     1
1000
337861
1002
}
1002
{
1070
     2
1000
-2002000
1002
}
  0
LINE
  5
C4
  8
0
 10
-129.8705266282424
 20
569.12736080198715
 30
0.0
 11
-122.7994588163768
 21
573.20984370662575
 31
0.0
1001
REVIT
1002
{
1070
     1
1000
337862
1002
}
1002
{
1070
     2
1000
-2002000
1002
}
  0
LINE
  5
C5
  8
0
 10
-76.546223493172306
 20
323.13062555923131
 30
0.0
 11
-42.298420473198142
 21
303.35720824554357
 31
0.0
1001
REVIT
1002
{
1070
     1
1000
337863
1002
}
1002
{
1070
     2
1000
-2002000
1002
}
1002
{
1070
     3
1000
-2009514
1002
}
  0
LINE
  5
C6
  8
0
 10
-290.98097763585832
 20
159.78026692492489
 30
0.0
 11
-325.22883077328481
 21
179.5532741529851
 31
0.0
1001
REVIT
1002
{
1070
     1
1000
337864
1002
}
1002
{
1070
     2
1000
-2002000
1002
}
1002
{
1070
     3
1000
-2009514
1002
}
  0
LINE
  5
C7
  8
0
 10
-83.867735997265214
 20
179.3570417238582
 30
0.0
 11
-106.46408060427071
 21
163.53491089404881
 31
0.0
1001
REVIT
1002
{
1070
     1
1000
337865
1002
}
1002
{
1070
     2
1000
-2002000
1002
}
  0
LINE
  5
C8
  8
0
 10
-83.867735997265214
 20
229.3564187119739
 30
0.0
 11
-83.867735997265214
 21
179.3570417238582
 31
0.0
1001
REVIT
1002
{
1070
     1
1000
337866
1002
}
1002
{
1070
     2
1000
-2002000
1002
}
  0
LINE
  5
C9
  8
0
 10
-83.8677359972652
 20
179.3564187119739
 30
0.0
 11
-120.6781384728172
 21
200.6089144902123
 31
0.0
1001
REVIT
1002
{
1070
     1
1000
337867
1002
}
1002
{
1070
     2
1000
-2002000
1002
}
  0
LINE
  5
CA
  8
0
 10
-83.867735997265214
 20
229.3564187119739
 30
0.0
 11
-120.6781384728172
 21
250.60891449021241
 31
0.0
1001
REVIT
1002
{
1070
     1
1000
337868
1002
}
1002
{
1070
     2
1000
-2002000
1002
}
  0
LINE
  5
CB
  8
0
 10
-106.46408060427061
 20
163.53491089404881
 30
0.0
 11
-106.46408060427071
 21
128.53553390593299
 31
0.0
1001
REVIT
1002
{
1070
     1
1000
337869
1002
}
1002
{
1070
     2
1000
-2002000
1002
}
  0
LINE
  5
CC
  8
0
 10
-106.46408060427071
 20
128.53553390593311
 30
0.0
 11
-109.9996145102035
 21
125.0000000000003
 31
0.0
1001
REVIT
1002
{
1070
     1
1000
337870
1002
}
1002
{
1070
     2
1000
-2002000
1002
}
  0
LINE
  5
CD
  8
0
 10
-106.46408060427071
 20
128.53553390593299
 30
0.0
 11
-269.27720231047959
 21
222.53573355061619
 31
0.0
1001
REVIT
1002
{
1070
     1
1000
337871
1002
}
1002
{
1070
     2
1000
-2002000
1002
}
  0
LINE
  5
CE
  8
0
 10
-109.9996145102035
 20
125.0000000000003
 30
0.0
 11
-272.8127362164106
 21
219.00019964468251
 31
0.0
1001
REVIT
1002
{
1070
     1
1000
337872
1002
}
1002
{
1070
     2
1000
-2002000
1002
}
  0
LINE
  5
CF
  8
0
 10
-246.67976680507061
 20
323.35770925505898
 30
0.0
 11
-246.67976680507061
 21
273.35833226694308
 31
0.0
1001
REVIT
1002
{
1070
     1
1000
337873
1002
}
1002
{
1070
     2
1000
-2002000
1002
}
  0
LINE
  5
D0
  8
0
 10
-246.67976680507061
 20
273.35833226694308
 30
0.0
 11
-226.74415565079951
 21
261.8485018005652
 31
0.0
1001
REVIT
1002
{
1070
     1
1000
337874
1002
}
1002
{
1070
     2
1000
-2002000
1002
}
  0
LINE
  5
D1
  8
0
 10
-246.67976680507061
 20
323.35770925505898
 30
0.0
 11
-226.74415565079951
 21
311.8478787886811
 31
0.0
1001
REVIT
1002
{
1070
     1
1000
337875
1002
}
1002
{
1070
     2
1000
-2002000
1002
}
  0
LINE
  5
D2
  8
0
 10
-106.46408060427071
 20
163.53491089404881
 30
0.0
 11
-165.16002292818061
 21
197.42302899509701
 31
0.0
1001
REVIT
1002
{
1070
     1
1000
337876
1002
}
1002
{
1070
     2
1000
-2002000
1002
}
  0
LINE
  5
D3
  8
0
 10
-246.680857703474
 20
273.35724136853872
 30
0.0
 11
-269.27720231047738
 21
257.53511053873081
 31
0.0
1001
REVIT
1002
{
1070
     1
1000
337877
1002
}
1002
{
1070
     2
1000
-2002000
1002
}
  0
LINE
  5
D4
  8
0
 10
-269.27720231047948
 20
257.53511053872921
 30
0.0
 11
-269.27720231047959
 21
222.53573355061619
 31
0.0
1001
REVIT
1002
{
1070
     1
1000
337878
1002
}
1002
{
1070
     2
1000
-2002000
1002
}
  0
LINE
  5
D5
  8
0
 10
-269.27720231047778
 20
222.53573355061519
 30
0.0
 11
-272.8127362164106
 21
219.00019964468251
 31
0.0
1001
REVIT
1002
{
1070
     1
1000
337879
1002
}
1002
{
1070
     2
1000
-2002000
1002
}
  0
LINE
  5
D6
  8
0
 10
-226.74415565079951
 20
232.9786446003107
 30
0.0
 11
-269.27720231047738
 21
257.53511053873081
 31
0.0
1001
REVIT
1002
{
1070
     1
1000
337880
1002
}
1002
{
1070
     2
1000
-2002000
1002
}
  0
LINE
  5
D7
  8
0
 10
-191.38881659147219
 20
212.56623007711761
 30
0.0
 11
-200.51536198750779
 21
217.83544351829011
 31
0.0
1001
REVIT
1002
{
1070
     1
1000
337881
1002
}
1002
{
1070
     2
1000
-2002000
1002
}
  0
LINE
  5
D8
  8
0
 10
-191.38881659147211
 20
217.27982791307511
 30
0.0
 11
-290.98173802668259
 21
159.77982791307821
 31
0.0
1001
REVIT
1002
{
1070
     1
1000
337882
1002
}
1002
{
1070
     2
1000
-2002000
1002
}
1002
{
1070
     3
1000
-2009514
1002
}
  0
LINE
  5
D9
  8
0
  6
DASH
 10
-325.22807038245998
 20
479.55283514113893
 30
0.0
 11
-290.98097763585838
 21
159.78026692492489
 31
0.0
1001
REVIT
1002
{
1070
     1
1000
337883
1002
}
1002
{
1070
     2
1000
-2002000
1002
}
1002
{
1070
     3
1000
291475
1002
}
  0
LINE
  5
DA
  8
0
  6
DASH
 10
-290.98173802668259
 20
459.7798279130771
 30
0.0
 11
-325.22883077328481
 21
179.55327415298501
 31
0.0
1001
REVIT
1002
{
1070
     1
1000
337884
1002
}
1002
{
1070
     2
1000
-2002000
1002
}
1002
{
1070
     3
1000
291475
1002
}
  0
LINE
  5
DB
  8
0
  6
DASH
 10
-76.545601778743332
 20
623.13060335592138
 30
0.0
 11
-42.298420473197218
 21
303.35720824554409
 31
0.0
1001
REVIT
1002
{
1070
     1
1000
337885
1002
}
1002
{
1070
     2
1000
-2002000
1002
}
1002
{
1070
     3
1000
291475
1002
}
  0
LINE
  5
DC
  8
0
  6
DASH
 10
-42.299180864021253
 20
603.35676923369408
 30
0.0
 11
-76.546223493172334
 21
323.13062555923131
 31
0.0
1001
REVIT
1002
{
1070
     1
1000
337886
1002
}
1002
{
1070
     2
1000
-2002000
1002
}
1002
{
1070
     3
1000
291475
1002
}
  0
ENDSEC
  0
EOF
