  0
SECTION
  2
HEADER
  9
$ACADVER
  1
AC1009
  9
$INSBASE
 10
0.0
 20
0.0
 30
0.0
  9
$EXTMIN
 10
-374.99961451020368
 20
-235.0
 30
0.0
  9
$EXTMAX
 10
76.000385489796273
 20
638.13065449519866
 30
0.0
  9
$LIMMIN
 10
0.0
 20
0.0
  9
$LIMMAX
 10
12.0
 20
9.0
  9
$ORTHOMODE
 70
     0
  9
$REGENMODE
 70
     1
  9
$FILLMODE
 70
     1
  9
$QTEXTMODE
 70
     0
  9
$MIRRTEXT
 70
     0
  9
$DRAGMODE
 70
     2
  9
$LTSCALE
 40
1.0
  9
$OSMODE
 70
   127
  9
$ATTMODE
 70
     1
  9
$TEXTSIZE
 40
0.2
  9
$TRACEWID
 40
0.05
  9
$TEXTSTYLE
  7
STANDARD
  9
$CLAYER
  8
0
  9
$CELTYPE
  6
BYLAYER
  9
$CECOLOR
 62
   256
  9
$DIMSCALE
 40
1.0
  9
$DIMASZ
 40
0.18
  9
$DIMEXO
 40
0.0625
  9
$DIMDLI
 40
0.38
  9
$DIMRND
 40
0.0
  9
$DIMDLE
 40
0.0
  9
$DIMEXE
 40
0.18
  9
$DIMTP
 40
0.0
  9
$DIMTM
 40
0.0
  9
$DIMTXT
 40
0.18
  9
$DIMCEN
 40
0.09
  9
$DIMTSZ
 40
0.0
  9
$DIMTOL
 70
     0
  9
$DIMLIM
 70
     0
  9
$DIMTIH
 70
     1
  9
$DIMTOH
 70
     1
  9
$DIMSE1
 70
     0
  9
$DIMSE2
 70
     0
  9
$DIMTAD
 70
     0
  9
$DIMZIN
 70
     0
  9
$DIMBLK
  1

  9
$DIMASO
 70
     1
  9
$DIMSHO
 70
     1
  9
$DIMPOST
  1

  9
$DIMAPOST
  1

  9
$DIMALT
 70
     0
  9
$DIMALTD
 70
     2
  9
$DIMALTF
 40
25.399999999999999
  9
$DIMLFAC
 40
1.0
  9
$DIMTOFL
 70
     0
  9
$DIMTVP
 40
0.0
  9
$DIMTIX
 70
     0
  9
$DIMSOXD
 70
     0
  9
$DIMSAH
 70
     0
  9
$DIMBLK1
  1

  9
$DIMBLK2
  1

  9
$DIMSTYLE
  2
STANDARD
  9
$DIMCLRD
 70
     0
  9
$DIMCLRE
 70
     0
  9
$DIMCLRT
 70
     0
  9
$DIMTFAC
 40
1.0
  9
$DIMGAP
 40
0.09
  9
$LUNITS
 70
     2
  9
$LUPREC
 70
     4
  9
$SKETCHINC
 40
0.1
  9
$FILLETRAD
 40
0.0
  9
$AUNITS
 70
     0
  9
$AUPREC
 70
     0
  9
$MENU
  1
.
  9
$ELEVATION
 40
0.0
  9
$PELEVATION
 40
0.0
  9
$THICKNESS
 40
0.0
  9
$LIMCHECK
 70
     0
  9
$BLIPMODE
 70
     0
  9
$CHAMFERA
 40
0.0
  9
$CHAMFERB
 40
0.0
  9
$SKPOLY
 70
     0
  9
$TDCREATE
 40
2457375.5588683221
  9
$TDUPDATE
 40
2457378.9921119451
  9
$TDINDWG
 40
0.0001408681
  9
$TDUSRTIMER
 40
0.0001408681
  9
$USRTIMER
 70
     1
  9
$ANGBASE
 50
0.0
  9
$ANGDIR
 70
     0
  9
$PDMODE
 70
     0
  9
$PDSIZE
 40
0.0
  9
$PLINEWID
 40
0.0
  9
$COORDS
 70
     2
  9
$SPLFRAME
 70
     0
  9
$SPLINETYPE
 70
     6
  9
$SPLINESEGS
 70
     8
  9
$ATTDIA
 70
     0
  9
$ATTREQ
 70
     0
  9
$HANDLING
 70
     1
  9
$HANDSEED
  5
1A8
  9
$SURFTAB1
 70
     6
  9
$SURFTAB2
 70
     6
  9
$SURFTYPE
 70
     6
  9
$SURFU
 70
     6
  9
$SURFV
 70
     6
  9
$UCSNAME
  2

  9
$UCSORG
 10
0.0
 20
0.0
 30
0.0
  9
$UCSXDIR
 10
1.0
 20
0.0
 30
0.0
  9
$UCSYDIR
 10
0.0
 20
1.0
 30
0.0
  9
$PUCSNAME
  2

  9
$PUCSORG
 10
0.0
 20
0.0
 30
0.0
  9
$PUCSXDIR
 10
1.0
 20
0.0
 30
0.0
  9
$PUCSYDIR
 10
0.0
 20
1.0
 30
0.0
  9
$USERI1
 70
     0
  9
$USERI2
 70
     0
  9
$USERI3
 70
     0
  9
$USERI4
 70
     0
  9
$USERI5
 70
     0
  9
$USERR1
 40
0.0
  9
$USERR2
 40
0.0
  9
$USERR3
 40
0.0
  9
$USERR4
 40
0.0
  9
$USERR5
 40
0.0
  9
$WORLDVIEW
 70
     1
  9
$SHADEDGE
 70
     3
  9
$SHADEDIF
 70
    70
  9
$TILEMODE
 70
     1
  9
$MAXACTVP
 70
    64
  9
$PLIMCHECK
 70
     0
  9
$PEXTMIN
 10
0.0
 20
0.0
 30
0.0
  9
$PEXTMAX
 10
0.0
 20
0.0
 30
0.0
  9
$PLIMMIN
 10
0.0
 20
0.0
  9
$PLIMMAX
 10
12.0
 20
9.0
  9
$UNITMODE
 70
     0
  9
$VISRETAIN
 70
     1
  9
$PLINEGEN
 70
     0
  9
$PSLTSCALE
 70
     1
  0
ENDSEC
  0
SECTION
  2
TABLES
  0
TABLE
  2
VPORT
 70
     1
  0
VPORT
  2
*ACTIVE
 70
     0
 10
0.0
 20
0.0
 11
1.0
 21
1.0
 12
594.86419254217765
 22
201.5653272475993
 13
0.0
 23
0.0
 14
1.0
 24
1.0
 15
0.0
 25
0.0
 16
0.0
 26
0.0
 36
1.0
 17
0.0
 27
0.0
 37
0.0
 40
724.61416458238625
 41
1.7244755244755241
 42
50.0
 43
0.0
 44
0.0
 50
0.0
 51
0.0
 71
     0
 72
  1000
 73
     1
 74
     3
 75
     0
 76
     0
 77
     0
 78
     0
  0
ENDTAB
  0
TABLE
  2
LTYPE
 70
     2
  0
LTYPE
  2
CONTINUOUS
 70
     0
  3
Solid line
 72
    65
 73
     0
 40
0.0
  0
LTYPE
  2
DASH
 70
     0
  3

 72
    65
 73
     2
 40
6.3499999999999988
 49
3.1749999999999989
 49
-3.1749999999999989
  0
ENDTAB
  0
TABLE
  2
LAYER
 70
     3
  0
LAYER
  2
0
 70
     0
 62
     7
  6
CONTINUOUS
  0
ENDTAB
  0
TABLE
  2
STYLE
 70
     2
  0
STYLE
  2
STANDARD
 70
     0
 40
0.0
 41
1.0
 50
0.0
 71
     0
 42
0.2
  3
txt
  4

  0
ENDTAB
  0
TABLE
  2
VIEW
 70
     0
  0
ENDTAB
  0
TABLE
  2
UCS
 70
     0
  0
ENDTAB
  0
TABLE
  2
APPID
 70
     5
  0
APPID
  2
ACAD
 70
     0
  0
APPID
  2
ACADANNOTATIVE
 70
     0
  0
APPID
  2
REVIT
 70
     0
  0
APPID
  2
ACAD_NAV_VCDISPLAY
 70
     0
  0
APPID
  2
ACAD_MLEADERVER
 70
     0
  0
ENDTAB
  0
TABLE
  2
DIMSTYLE
 70
     2
  0
DIMSTYLE
  2
STANDARD
 70
     0
  3

  4

  5

  6

  7

 40
1.0
 41
0.18
 42
0.0625
 43
0.38
 44
0.18
 45
0.0
 46
0.0
 47
0.0
 48
0.0
140
0.18
141
0.09
142
0.0
143
25.399999999999999
144
1.0
145
0.0
146
1.0
147
0.09
 71
     0
 72
     0
 73
     1
 74
     1
 75
     0
 76
     0
 77
     0
 78
     0
170
     0
171
     2
172
     0
173
     0
174
     0
175
     0
176
     0
177
     0
178
     0
  0
ENDTAB
  0
ENDSEC
  0
SECTION
  2
BLOCKS
  0
BLOCK
  8
0
  2
$MODEL_SPACE
 70
     0
 10
0.0
 20
0.0
 30
0.0
  3
$MODEL_SPACE
  1

  0
ENDBLK
  5
72
  8
0
  0
BLOCK
 67
     1
  8
0
  2
$PAPER_SPACE
 70
     0
 10
0.0
 20
0.0
 30
0.0
  3
$PAPER_SPACE
  1

  0
ENDBLK
  5
76
 67
     1
  8
0
  0
ENDSEC
  0
SECTION
  2
ENTITIES
  0
LINE
  5
88
  8
0
 10
76.000385489796273
 20
40.000000000000107
 30
0.0
 11
76.000385489796273
 21
-235.0
 31
0.0
1001
REVIT
1002
{
1070
     1
1000
338216
1002
}
1002
{
1070
     2
1000
-2002000
1002
}
  0
LINE
  5
89
  8
0
 10
76.000385489796273
 20
-235.0
 30
0.0
 11
66.000385489796273
 21
-235.0
 31
0.0
1001
REVIT
1002
{
1070
     1
1000
338217
1002
}
1002
{
1070
     2
1000
-2002000
1002
}
  0
LINE
  5
8A
  8
0
 10
66.000385489796273
 20
-235.0
 30
0.0
 11
66.000385489796273
 21
30.000000000000149
 31
0.0
1001
REVIT
1002
{
1070
     1
1000
338218
1002
}
1002
{
1070
     2
1000
-2002000
1002
}
  0
LINE
  5
8B
  8
0
 10
66.000385489796244
 20
30.00000000000016
 30
0.0
 11
76.000385489796244
 21
40.000000000000107
 31
0.0
1001
REVIT
1002
{
1070
     1
1000
338219
1002
}
1002
{
1070
     2
1000
-2002000
1002
}
  0
LINE
  5
8C
  8
0
 10
76.000385489796273
 20
40.000000000000107
 30
0.0
 11
-75.999614510203742
 21
40.000000000000107
 31
0.0
1001
REVIT
1002
{
1070
     1
1000
338220
1002
}
1002
{
1070
     2
1000
-2002000
1002
}
  0
LINE
  5
8D
  8
0
 10
-75.999614510203742
 20
40.000000000000107
 30
0.0
 11
-75.999614510203742
 21
-234.9999999999998
 31
0.0
1001
REVIT
1002
{
1070
     1
1000
338221
1002
}
1002
{
1070
     2
1000
-2002000
1002
}
  0
LINE
  5
8E
  8
0
 10
-75.999614510203742
 20
-234.9999999999998
 30
0.0
 11
-65.999614510203742
 21
-234.9999999999998
 31
0.0
1001
REVIT
1002
{
1070
     1
1000
338222
1002
}
1002
{
1070
     2
1000
-2002000
1002
}
  0
LINE
  5
8F
  8
0
 10
-65.999614510203742
 20
-234.9999999999998
 30
0.0
 11
-65.999614510203742
 21
30.000000000000149
 31
0.0
1001
REVIT
1002
{
1070
     1
1000
338223
1002
}
1002
{
1070
     2
1000
-2002000
1002
}
  0
LINE
  5
90
  8
0
 10
-65.999614510203742
 20
30.000000000000139
 30
0.0
 11
66.000385489796273
 21
30.000000000000139
 31
0.0
1001
REVIT
1002
{
1070
     1
1000
338224
1002
}
1002
{
1070
     2
1000
-2002000
1002
}
  0
LINE
  5
91
  8
0
 10
66.000385489796273
 20
-235.0
 30
0.0
 11
46.000385489796258
 21
-235.0
 31
0.0
1001
REVIT
1002
{
1070
     1
1000
338225
1002
}
1002
{
1070
     2
1000
-2002000
1002
}
  0
LINE
  5
92
  8
0
 10
46.000385489796258
 20
-235.0
 30
0.0
 11
46.000385489796258
 21
-9.9999999999999591
 31
0.0
1001
REVIT
1002
{
1070
     1
1000
338226
1002
}
1002
{
1070
     2
1000
-2002000
1002
}
1002
{
1070
     3
1000
206783
1002
}
  0
LINE
  5
93
  8
0
 10
46.000385489796258
 20
-9.9999999999999343
 30
0.0
 11
-45.999614510203749
 21
-9.9999999999999343
 31
0.0
1001
REVIT
1002
{
1070
     1
1000
338227
1002
}
1002
{
1070
     2
1000
-2002000
1002
}
1002
{
1070
     3
1000
206783
1002
}
  0
LINE
  5
94
  8
0
 10
-45.999614510203742
 20
-9.9999999999999343
 30
0.0
 11
-45.999614510203742
 21
-234.9999999999998
 31
0.0
1001
REVIT
1002
{
1070
     1
1000
338228
1002
}
1002
{
1070
     2
1000
-2002000
1002
}
1002
{
1070
     3
1000
206783
1002
}
  0
LINE
  5
95
  8
0
 10
-45.999614510203742
 20
-234.9999999999998
 30
0.0
 11
-65.999614510203742
 21
-234.9999999999998
 31
0.0
1001
REVIT
1002
{
1070
     1
1000
338229
1002
}
1002
{
1070
     2
1000
-2002000
1002
}
  0
LINE
  5
96
  8
0
 10
-65.999614510203756
 20
30.000000000000171
 30
0.0
 11
-75.999614510203671
 21
40.000000000000128
 31
0.0
1001
REVIT
1002
{
1070
     1
1000
338230
1002
}
1002
{
1070
     2
1000
-2002000
1002
}
  0
LINE
  5
97
  8
0
 10
-371.99961451020368
 20
30.000000000000089
 30
0.0
 11
-371.99961451020368
 21
40.000000000000078
 31
0.0
1001
REVIT
1002
{
1070
     1
1000
338231
1002
}
1002
{
1070
     2
1000
-2002000
1002
}
1002
{
1070
     3
1000
206783
1002
}
  0
LINE
  5
98
  8
0
 10
-371.99961451020368
 20
40.000000000000078
 30
0.0
 11
-374.99961451020368
 21
40.000000000000078
 31
0.0
1001
REVIT
1002
{
1070
     1
1000
338232
1002
}
1002
{
1070
     2
1000
-2002000
1002
}
1002
{
1070
     3
1000
206783
1002
}
  0
LINE
  5
99
  8
0
 10
-374.99961451020368
 20
40.000000000000078
 30
0.0
 11
-374.99961451020368
 21
-9.9999999999999343
 31
0.0
1001
REVIT
1002
{
1070
     1
1000
338233
1002
}
1002
{
1070
     2
1000
-2002000
1002
}
1002
{
1070
     3
1000
206783
1002
}
  0
LINE
  5
9A
  8
0
 10
-374.99961451020368
 20
-9.9999999999999343
 30
0.0
 11
-304.99961451020368
 21
-9.9999999999999343
 31
0.0
1001
REVIT
1002
{
1070
     1
1000
338234
1002
}
1002
{
1070
     2
1000
-2002000
1002
}
1002
{
1070
     3
1000
206783
1002
}
  0
LINE
  5
9B
  8
0
 10
-304.99961451020368
 20
-9.9999999999999343
 30
0.0
 11
-304.99961451020368
 21
-235.0
 31
0.0
1001
REVIT
1002
{
1070
     1
1000
338235
1002
}
1002
{
1070
     2
1000
-2002000
1002
}
  0
LINE
  5
9C
  8
0
 10
-304.99961451020368
 20
-235.0
 30
0.0
 11
-374.99961451020368
 21
-235.0
 31
0.0
1001
REVIT
1002
{
1070
     1
1000
338236
1002
}
1002
{
1070
     2
1000
-2002000
1002
}
  0
LINE
  5
9D
  8
0
 10
-374.99961451020368
 20
-235.0
 30
0.0
 11
-374.99961451020368
 21
-9.9999999999999591
 31
0.0
1001
REVIT
1002
{
1070
     1
1000
338237
1002
}
1002
{
1070
     2
1000
-2002000
1002
}
  0
LINE
  5
9E
  8
0
 10
-234.8290578843233
 20
632.89016288571054
 30
0.0
 11
-122.7994588163769
 21
568.20984370662575
 31
0.0
1001
REVIT
1002
{
1070
     1
1000
338238
1002
}
1002
{
1070
     2
1000
-2002000
1002
}
  0
LINE
  5
9F
  8
0
 10
-122.7994588163769
 20
568.20984370662575
 30
0.0
 11
-120.6781384728172
 21
569.43458857801727
 31
0.0
1001
REVIT
1002
{
1070
     1
1000
338239
1002
}
1002
{
1070
     2
1000
-2002000
1002
}
  0
LINE
  5
A0
  8
0
 10
-120.6781384728172
 20
569.43458857801727
 30
0.0
 11
-232.70773754076399
 21
634.11490775710229
 31
0.0
1001
REVIT
1002
{
1070
     1
1000
338240
1002
}
1002
{
1070
     2
1000
-2002000
1002
}
  0
LINE
  5
A1
  8
0
 10
-122.7994588163769
 20
568.20984370662575
 30
0.0
 11
-122.7994588163769
 21
292.38501466023939
 31
0.0
1001
REVIT
1002
{
1070
     1
1000
338241
1002
}
1002
{
1070
     2
1000
-2002000
1002
}
  0
LINE
  5
A2
  8
0
 10
-122.7994588163769
 20
292.38501466023939
 30
0.0
 11
-129.87052662824249
 21
296.46749756487799
 31
0.0
1001
REVIT
1002
{
1070
     1
1000
338242
1002
}
1002
{
1070
     2
1000
-2002000
1002
}
  0
LINE
  5
A3
  8
0
 10
-129.87052662824249
 20
296.46749756487799
 30
0.0
 11
-129.87052662824249
 21
564.12736080198715
 31
0.0
1001
REVIT
1002
{
1070
     1
1000
338243
1002
}
1002
{
1070
     2
1000
-2002000
1002
}
  0
LINE
  5
A4
  8
0
 10
-129.87052662824249
 20
564.12736080198715
 30
0.0
 11
-227.75799007245789
 21
620.64271417179486
 31
0.0
1001
REVIT
1002
{
1070
     1
1000
338244
1002
}
1002
{
1070
     2
1000
-2002000
1002
}
  0
LINE
  5
A5
  8
0
 10
-227.75799007245789
 20
620.64271417179486
 30
0.0
 11
-227.75799007245789
 21
571.65291931613103
 31
0.0
1001
REVIT
1002
{
1070
     1
1000
338245
1002
}
1002
{
1070
     2
1000
-2002000
1002
}
  0
LINE
  5
A6
  8
0
 10
-234.8290578843233
 20
567.57043641149244
 30
0.0
 11
-234.8290578843233
 21
632.89016288571054
 31
0.0
1001
REVIT
1002
{
1070
     1
1000
338246
1002
}
1002
{
1070
     2
1000
-2002000
1002
}
  0
LINE
  5
A7
  8
0
 10
-234.8290578843233
 20
632.89016288571099
 30
0.0
 11
-232.70773754076379
 21
634.1149077571024
 31
0.0
1001
REVIT
1002
{
1070
     1
1000
338247
1002
}
1002
{
1070
     2
1000
-2002000
1002
}
  0
LINE
  5
A8
  8
0
 10
-232.70773754076379
 20
634.1149077571024
 30
0.0
 11
-120.6781384728171
 21
569.43458857801727
 31
0.0
1001
REVIT
1002
{
1070
     1
1000
338248
1002
}
1002
{
1070
     2
1000
-2002000
1002
}
  0
LINE
  5
A9
  8
0
 10
-120.6781384728172
 20
569.43458857801727
 30
0.0
 11
-120.6781384728172
 21
293.6097595316308
 31
0.0
1001
REVIT
1002
{
1070
     1
1000
338249
1002
}
1002
{
1070
     2
1000
-2002000
1002
}
  0
LINE
  5
AA
  8
0
 10
-120.6781384728172
 20
293.6097595316308
 30
0.0
 11
-122.7994588163769
 21
292.38501466023939
 31
0.0
1001
REVIT
1002
{
1070
     1
1000
338250
1002
}
1002
{
1070
     2
1000
-2002000
1002
}
  0
LINE
  5
AB
  8
0
 10
-120.6781384728172
 20
569.43458857801727
 30
0.0
 11
-120.6781384728172
 21
293.6097595316308
 31
0.0
1001
REVIT
1002
{
1070
     1
1000
338251
1002
}
1002
{
1070
     2
1000
-2002000
1002
}
  0
LINE
  5
AC
  8
0
 10
-129.87052662824249
 20
298.91698730766109
 30
0.0
 11
-141.89134190841369
 21
305.85720824554681
 31
0.0
1001
REVIT
1002
{
1070
     1
1000
338252
1002
}
1002
{
1070
     2
1000
-2002000
1002
}
  0
LINE
  5
AD
  8
0
 10
-141.89134190841369
 20
305.85720824554681
 30
0.0
 11
-141.89134190841369
 21
540.85720824554676
 31
0.0
1001
REVIT
1002
{
1070
     1
1000
338253
1002
}
1002
{
1070
     2
1000
-2002000
1002
}
  0
LINE
  5
AE
  8
0
 10
-141.89134190841369
 20
540.85720824554676
 30
0.0
 11
-211.49453410516711
 21
581.04262999679986
 31
0.0
1001
REVIT
1002
{
1070
     1
1000
338254
1002
}
1002
{
1070
     2
1000
-2002000
1002
}
  0
LINE
  5
AF
  8
0
 10
-211.49453410516719
 20
581.04262999679975
 30
0.0
 11
-141.89134190841369
 21
540.85720824554676
 31
0.0
1001
REVIT
1002
{
1070
     1
1000
338255
1002
}
1002
{
1070
     2
1000
-2002000
1002
}
  0
LINE
  5
B0
  8
0
 10
-141.89134190841369
 20
305.85720824554681
 30
0.0
 11
-191.38881659147219
 21
277.27982791307647
 31
0.0
1001
REVIT
1002
{
1070
     1
1000
338256
1002
}
1002
{
1070
     2
1000
-2002000
1002
}
  0
LINE
  5
B1
  8
0
 10
-191.38881659147219
 20
512.27982791307659
 30
0.0
 11
-191.38881659147219
 21
277.27982791307647
 31
0.0
1001
REVIT
1002
{
1070
     1
1000
338257
1002
}
1002
{
1070
     2
1000
-2002000
1002
}
  0
LINE
  5
B2
  8
0
 10
-211.49453410516711
 20
581.04262999679986
 30
0.0
 11
-260.99200878822552
 21
552.46524966432958
 31
0.0
1001
REVIT
1002
{
1070
     1
1000
338258
1002
}
1002
{
1070
     2
1000
-2002000
1002
}
  0
LINE
  5
B3
  8
0
 10
-260.99200878822541
 20
552.46524966432958
 30
0.0
 11
-191.38881659147219
 21
512.27982791307659
 31
0.0
1001
REVIT
1002
{
1070
     1
1000
338259
1002
}
1002
{
1070
     2
1000
-2002000
1002
}
  0
LINE
  5
B4
  8
0
 10
-260.99200878822592
 20
317.46524966432918
 30
0.0
 11
-260.99200878822592
 21
552.46524966432946
 31
0.0
1001
REVIT
1002
{
1070
     1
1000
338260
1002
}
1002
{
1070
     2
1000
-2002000
1002
}
  0
LINE
  5
B7
  8
0
 10
-76.546273610624766
 20
418.13021547360353
 30
0.0
 11
-76.546273610624766
 21
618.13331379005194
 31
0.0
1001
REVIT
1002
{
1070
     1
1000
338261
1002
}
1002
{
1070
     2
1000
-2002000
1002
}
1002
{
1070
     3
1000
-2009514
1002
}
  0
LINE
  5
B8
  8
0
 10
-110.7933663487849
 20
637.90366171838468
 30
0.0
 11
-42.298420473198121
 21
598.3572082455438
 31
0.0
1001
REVIT
1002
{
1070
     1
1000
338262
1002
}
1002
{
1070
     2
1000
-2002000
1002
}
1002
{
1070
     3
1000
-2009514
1002
}
  0
LINE
  5
B9
  8
0
 10
-42.298420473198128
 20
598.3572082455438
 30
0.0
 11
-290.98173802668362
 21
454.77982791307761
 31
0.0
1001
REVIT
1002
{
1070
     1
1000
338263
1002
}
1002
{
1070
     2
1000
-2002000
1002
}
1002
{
1070
     3
1000
-2009514
1002
}
  0
LINE
  5
BA
  8
0
 10
-290.98173802668271
 20
454.77982791307721
 30
0.0
 11
-290.98173802668271
 21
254.77982791307821
 31
0.0
1001
REVIT
1002
{
1070
     1
1000
338264
1002
}
1002
{
1070
     2
1000
-2002000
1002
}
1002
{
1070
     3
1000
-2009514
1002
}
  0
LINE
  5
BB
  8
0
 10
-325.22807038245992
 20
274.55371316483269
 30
0.0
 11
-76.546273610624795
 21
418.13021547360353
 31
0.0
1001
REVIT
1002
{
1070
     1
1000
338265
1002
}
1002
{
1070
     2
1000
-2002000
1002
}
1002
{
1070
     3
1000
-2009514
1002
}
  0
LINE
  5
BC
  8
0
 10
-290.98173802668362
 20
454.77982791307761
 30
0.0
 11
-359.47592351988641
 21
494.32496434550268
 31
0.0
1001
REVIT
1002
{
1070
     1
1000
338266
1002
}
1002
{
1070
     2
1000
-2002000
1002
}
1002
{
1070
     3
1000
-2009514
1002
}
  0
LINE
  5
BD
  8
0
 10
-325.22959116410999
 20
474.55283514113779
 30
0.0
 11
-76.545893410991567
 21
618.1304349819643
 31
0.0
1001
REVIT
1002
{
1070
     1
1000
338267
1002
}
1002
{
1070
     2
1000
-2002000
1002
}
1002
{
1070
     3
1000
-2009514
1002
}
  0
LINE
  5
BE
  8
0
 10
-325.22807038245992
 20
274.55371316483269
 30
0.0
 11
-325.22807038245992
 21
474.55195711744261
 31
0.0
1001
REVIT
1002
{
1070
     1
1000
338268
1002
}
1002
{
1070
     2
1000
-2002000
1002
}
1002
{
1070
     3
1000
-2009514
1002
}
  0
LINE
  5
BF
  8
0
 10
-42.298420473198121
 20
598.3572082455438
 30
0.0
 11
-42.298420473198121
 21
398.35720824554357
 31
0.0
1001
REVIT
1002
{
1070
     1
1000
338269
1002
}
1002
{
1070
     2
1000
-2002000
1002
}
1002
{
1070
     3
1000
-2009514
1002
}
  0
LINE
  5
C0
  8
0
 10
-42.298420473198107
 20
398.35720824554357
 30
0.0
 11
-191.38881659147219
 21
312.279827913075
 31
0.0
1001
REVIT
1002
{
1070
     1
1000
338270
1002
}
1002
{
1070
     2
1000
-2002000
1002
}
1002
{
1070
     3
1000
-2009514
1002
}
  0
LINE
  5
C1
  8
0
 10
-227.75799007245769
 20
620.64271417179464
 30
0.0
 11
-234.8290578843233
 21
632.89016288571099
 31
0.0
1001
REVIT
1002
{
1070
     1
1000
338271
1002
}
1002
{
1070
     2
1000
-2002000
1002
}
  0
LINE
  5
C2
  8
0
 10
-129.8705266282424
 20
564.12736080198715
 30
0.0
 11
-122.7994588163769
 21
568.20984370662575
 31
0.0
1001
REVIT
1002
{
1070
     1
1000
338272
1002
}
1002
{
1070
     2
1000
-2002000
1002
}
  0
LINE
  5
C3
  8
0
 10
-110.7933663487849
 20
437.90366171838451
 30
0.0
 11
-42.298420473198128
 21
398.35720824554357
 31
0.0
1001
REVIT
1002
{
1070
     1
1000
338273
1002
}
1002
{
1070
     2
1000
-2002000
1002
}
1002
{
1070
     3
1000
-2009514
1002
}
  0
LINE
  5
C4
  8
0
 10
-290.98097763585832
 20
254.780266924925
 30
0.0
 11
-359.4766839107113
 21
294.32628138104519
 31
0.0
1001
REVIT
1002
{
1070
     1
1000
338274
1002
}
1002
{
1070
     2
1000
-2002000
1002
}
1002
{
1070
     3
1000
-2009514
1002
}
  0
LINE
  5
C5
  8
0
 10
-83.867735997265186
 20
274.35704172385829
 30
0.0
 11
-106.46408060427061
 21
258.53491089404878
 31
0.0
1001
REVIT
1002
{
1070
     1
1000
338275
1002
}
1002
{
1070
     2
1000
-2002000
1002
}
  0
LINE
  5
C6
  8
0
 10
-83.867735997265186
 20
324.3564187119739
 30
0.0
 11
-83.867735997265186
 21
274.35704172385829
 31
0.0
1001
REVIT
1002
{
1070
     1
1000
338276
1002
}
1002
{
1070
     2
1000
-2002000
1002
}
  0
LINE
  5
C7
  8
0
 10
-83.867735997265171
 20
274.3564187119739
 30
0.0
 11
-120.6781384728172
 21
295.60891449021238
 31
0.0
1001
REVIT
1002
{
1070
     1
1000
338277
1002
}
1002
{
1070
     2
1000
-2002000
1002
}
  0
LINE
  5
C8
  8
0
 10
-83.867735997265186
 20
324.3564187119739
 30
0.0
 11
-120.6781384728172
 21
345.60891449021238
 31
0.0
1001
REVIT
1002
{
1070
     1
1000
338278
1002
}
1002
{
1070
     2
1000
-2002000
1002
}
  0
LINE
  5
C9
  8
0
 10
-106.46408060427061
 20
258.53491089404878
 30
0.0
 11
-106.46408060427071
 21
223.53553390593311
 31
0.0
1001
REVIT
1002
{
1070
     1
1000
338279
1002
}
1002
{
1070
     2
1000
-2002000
1002
}
  0
LINE
  5
CA
  8
0
 10
-106.46408060427061
 20
223.53553390593311
 30
0.0
 11
-109.9996145102035
 21
220.00000000000031
 31
0.0
1001
REVIT
1002
{
1070
     1
1000
338280
1002
}
1002
{
1070
     2
1000
-2002000
1002
}
  0
LINE
  5
CB
  8
0
 10
-106.46408060427071
 20
223.53553390593311
 30
0.0
 11
-303.52505544790591
 21
337.30874077867611
 31
0.0
1001
REVIT
1002
{
1070
     1
1000
338281
1002
}
1002
{
1070
     2
1000
-2002000
1002
}
  0
LINE
  5
CC
  8
0
 10
-109.9996145102035
 20
220.00000000000031
 30
0.0
 11
-307.06058935383697
 21
333.77320687274249
 31
0.0
1001
REVIT
1002
{
1070
     1
1000
338282
1002
}
1002
{
1070
     2
1000
-2002000
1002
}
  0
LINE
  5
CD
  8
0
 10
-280.92761994249901
 20
438.13071648311939
 30
0.0
 11
-280.92761994249901
 21
388.13133949500389
 31
0.0
1001
REVIT
1002
{
1070
     1
1000
338283
1002
}
1002
{
1070
     2
1000
-2002000
1002
}
  0
LINE
  5
CE
  8
0
 10
-280.92761994249901
 20
388.13133949500389
 30
0.0
 11
-260.99200878822592
 21
376.62150902862481
 31
0.0
1001
REVIT
1002
{
1070
     1
1000
338284
1002
}
1002
{
1070
     2
1000
-2002000
1002
}
  0
LINE
  5
CF
  8
0
 10
-280.92761994249901
 20
438.13071648311939
 30
0.0
 11
-260.99200878822592
 21
426.62088601674043
 31
0.0
1001
REVIT
1002
{
1070
     1
1000
338285
1002
}
1002
{
1070
     2
1000
-2002000
1002
}
  0
LINE
  5
D0
  8
0
 10
-106.46408060427061
 20
258.53491089404878
 30
0.0
 11
-165.1600229281805
 21
292.42302899509701
 31
0.0
1001
REVIT
1002
{
1070
     1
1000
338286
1002
}
1002
{
1070
     2
1000
-2002000
1002
}
  0
LINE
  5
D1
  8
0
 10
-280.92871084090251
 20
388.13024859659998
 30
0.0
 11
-303.52505544790591
 21
372.30811776679201
 31
0.0
1001
REVIT
1002
{
1070
     1
1000
338287
1002
}
1002
{
1070
     2
1000
-2002000
1002
}
  0
LINE
  5
D2
  8
0
 10
-303.5250554479058
 20
372.3081177667919
 30
0.0
 11
-303.5250554479058
 21
337.3087407786735
 31
0.0
1001
REVIT
1002
{
1070
     1
1000
338288
1002
}
1002
{
1070
     2
1000
-2002000
1002
}
  0
LINE
  5
D3
  8
0
 10
-303.5250554479058
 20
337.3087407786735
 30
0.0
 11
-307.06058935383697
 21
333.77320687274249
 31
0.0
1001
REVIT
1002
{
1070
     1
1000
338289
1002
}
1002
{
1070
     2
1000
-2002000
1002
}
  0
LINE
  5
D4
  8
0
 10
-260.99200878822592
 20
347.75165182837071
 30
0.0
 11
-303.52505544790603
 21
372.30811776679201
 31
0.0
1001
REVIT
1002
{
1070
     1
1000
338290
1002
}
1002
{
1070
     2
1000
-2002000
1002
}
  0
LINE
  5
D5
  8
0
 10
-191.38881659147219
 20
307.56623007711761
 30
0.0
 11
-234.76321512493399
 21
332.60845074634989
 31
0.0
1001
REVIT
1002
{
1070
     1
1000
338291
1002
}
1002
{
1070
     2
1000
-2002000
1002
}
  0
LINE
  5
D6
  8
0
 10
-191.38881659147219
 20
312.279827913075
 30
0.0
 11
-290.98173802668271
 21
254.77982791307821
 31
0.0
1001
REVIT
1002
{
1070
     1
1000
338292
1002
}
1002
{
1070
     2
1000
-2002000
1002
}
1002
{
1070
     3
1000
-2009514
1002
}
  0
LINE
  5
D7
  8
0
 10
-359.4766839107113
 20
294.32628138104519
 30
0.0
 11
-110.793366348785
 21
437.90366171838451
 31
0.0
1001
REVIT
1002
{
1070
     1
1000
338293
1002
}
1002
{
1070
     2
1000
-2002000
1002
}
1002
{
1070
     3
1000
-2009514
1002
}
  0
LINE
  5
D8
  8
0
 10
-359.47592351988629
 20
494.32672039289292
 30
0.0
 11
-110.793366348785
 21
637.9036617183848
 31
0.0
1001
REVIT
1002
{
1070
     1
1000
338294
1002
}
1002
{
1070
     2
1000
-2002000
1002
}
1002
{
1070
     3
1000
-2009514
1002
}
  0
LINE
  5
D9
  8
0
 10
-359.47592351988641
 20
294.32584236919678
 30
0.0
 11
-359.47592351988641
 21
494.32672039289281
 31
0.0
1001
REVIT
1002
{
1070
     1
1000
338295
1002
}
1002
{
1070
     2
1000
-2002000
1002
}
1002
{
1070
     3
1000
-2009514
1002
}
  0
LINE
  5
DA
  8
0
 10
-111.18728976200219
 20
438.1302154736037
 30
0.0
 11
-111.18728976200219
 21
638.13065449519866
 31
0.0
1001
REVIT
1002
{
1070
     1
1000
338296
1002
}
1002
{
1070
     2
1000
-2002000
1002
}
1002
{
1070
     3
1000
-2009514
1002
}
  0
LINE
  5
DB
  8
0
 10
-191.38881659147219
 20
357.650671415582
 30
0.0
 11
-260.99200878822592
 21
317.46524966432918
 31
0.0
1001
REVIT
1002
{
1070
     1
1000
338297
1002
}
1002
{
1070
     2
1000
-2002000
1002
}
  0
LINE
  5
DC
  8
0
  6
DASH
 10
-359.47592351988629
 20
494.32672039289292
 30
0.0
 11
-325.22845057787231
 21
274.5530546470614
 31
0.0
1001
REVIT
1002
{
1070
     1
1000
338298
1002
}
1002
{
1070
     2
1000
-2002000
1002
}
1002
{
1070
     3
1000
291475
1002
}
  0
LINE
  5
DD
  8
0
  6
DASH
 10
-325.22887053002432
 20
474.55662759729972
 30
0.0
 11
-359.47592351988652
 21
294.32584236919678
 31
0.0
1001
REVIT
1002
{
1070
     1
1000
338299
1002
}
1002
{
1070
     2
1000
-2002000
1002
}
1002
{
1070
     3
1000
291475
1002
}
  0
LINE
  5
DE
  8
0
  6
DASH
 10
-325.22887053002432
 20
474.55662759729972
 30
0.0
 11
-290.98097763585832
 21
254.780266924925
 31
0.0
1001
REVIT
1002
{
1070
     1
1000
338300
1002
}
1002
{
1070
     2
1000
-2002000
1002
}
1002
{
1070
     3
1000
291475
1002
}
  0
LINE
  5
DF
  8
0
  6
DASH
 10
-290.98211822209601
 20
454.78004741900128
 30
0.0
 11
-325.22845057787242
 21
274.55305464706129
 31
0.0
1001
REVIT
1002
{
1070
     1
1000
338301
1002
}
1002
{
1070
     2
1000
-2002000
1002
}
1002
{
1070
     3
1000
291475
1002
}
  0
LINE
  5
E0
  8
0
  6
DASH
 10
-76.546273610624766
 20
618.13331379005194
 30
0.0
 11
-42.298420473199712
 21
398.35720824554272
 31
0.0
1001
REVIT
1002
{
1070
     1
1000
338302
1002
}
1002
{
1070
     2
1000
-2002000
1002
}
1002
{
1070
     3
1000
291475
1002
}
  0
LINE
  5
E1
  8
0
  6
DASH
 10
-42.299561059438183
 20
598.35698873962406
 30
0.0
 11
-76.545818241487254
 21
418.13039158186689
 31
0.0
1001
REVIT
1002
{
1070
     1
1000
338303
1002
}
1002
{
1070
     2
1000
-2002000
1002
}
1002
{
1070
     3
1000
291475
1002
}
  0
LINE
  5
E2
  8
0
  6
DASH
 10
-110.7932408283734
 20
637.90373418762817
 30
0.0
 11
-76.545818241486273
 21
418.13039158186638
 31
0.0
1001
REVIT
1002
{
1070
     1
1000
338304
1002
}
1002
{
1070
     2
1000
-2002000
1002
}
1002
{
1070
     3
1000
291475
1002
}
  0
LINE
  5
E3
  8
0
  6
DASH
 10
-76.546808479434901
 20
618.13096330870655
 30
0.0
 11
-110.7932160097735
 21
437.90357491818872
 31
0.0
1001
REVIT
1002
{
1070
     1
1000
338305
1002
}
1002
{
1070
     2
1000
-2002000
1002
}
1002
{
1070
     3
1000
291475
1002
}
  0
ENDSEC
  0
EOF
