  0
SECTION
  2
HEADER
  9
$ACADVER
  1
AC1009
  9
$INSBASE
 10
0.0
 20
0.0
 30
0.0
  9
$EXTMIN
 10
-456.86050011633239
 20
-60.000000000000057
 30
0.0
  9
$EXTMAX
 10
117.3755804723299
 20
554.47185812896464
 30
0.0
  9
$LIMMIN
 10
0.0
 20
0.0
  9
$LIMMAX
 10
12.0
 20
9.0
  9
$ORTHOMODE
 70
     0
  9
$REGENMODE
 70
     1
  9
$FILLMODE
 70
     1
  9
$QTEXTMODE
 70
     0
  9
$MIRRTEXT
 70
     0
  9
$DRAGMODE
 70
     2
  9
$LTSCALE
 40
1.0
  9
$OSMODE
 70
   127
  9
$ATTMODE
 70
     1
  9
$TEXTSIZE
 40
0.2
  9
$TRACEWID
 40
0.05
  9
$TEXTSTYLE
  7
STANDARD
  9
$CLAYER
  8
0
  9
$CELTYPE
  6
BYLAYER
  9
$CECOLOR
 62
   256
  9
$DIMSCALE
 40
1.0
  9
$DIMASZ
 40
0.18
  9
$DIMEXO
 40
0.0625
  9
$DIMDLI
 40
0.38
  9
$DIMRND
 40
0.0
  9
$DIMDLE
 40
0.0
  9
$DIMEXE
 40
0.18
  9
$DIMTP
 40
0.0
  9
$DIMTM
 40
0.0
  9
$DIMTXT
 40
0.18
  9
$DIMCEN
 40
0.09
  9
$DIMTSZ
 40
0.0
  9
$DIMTOL
 70
     0
  9
$DIMLIM
 70
     0
  9
$DIMTIH
 70
     1
  9
$DIMTOH
 70
     1
  9
$DIMSE1
 70
     0
  9
$DIMSE2
 70
     0
  9
$DIMTAD
 70
     0
  9
$DIMZIN
 70
     0
  9
$DIMBLK
  1

  9
$DIMASO
 70
     1
  9
$DIMSHO
 70
     1
  9
$DIMPOST
  1

  9
$DIMAPOST
  1

  9
$DIMALT
 70
     0
  9
$DIMALTD
 70
     2
  9
$DIMALTF
 40
25.399999999999999
  9
$DIMLFAC
 40
1.0
  9
$DIMTOFL
 70
     0
  9
$DIMTVP
 40
0.0
  9
$DIMTIX
 70
     0
  9
$DIMSOXD
 70
     0
  9
$DIMSAH
 70
     0
  9
$DIMBLK1
  1

  9
$DIMBLK2
  1

  9
$DIMSTYLE
  2
STANDARD
  9
$DIMCLRD
 70
     0
  9
$DIMCLRE
 70
     0
  9
$DIMCLRT
 70
     0
  9
$DIMTFAC
 40
1.0
  9
$DIMGAP
 40
0.09
  9
$LUNITS
 70
     2
  9
$LUPREC
 70
     4
  9
$SKETCHINC
 40
0.1
  9
$FILLETRAD
 40
0.0
  9
$AUNITS
 70
     0
  9
$AUPREC
 70
     0
  9
$MENU
  1
.
  9
$ELEVATION
 40
0.0
  9
$PELEVATION
 40
0.0
  9
$THICKNESS
 40
0.0
  9
$LIMCHECK
 70
     0
  9
$BLIPMODE
 70
     0
  9
$CHAMFERA
 40
0.0
  9
$CHAMFERB
 40
0.0
  9
$SKPOLY
 70
     0
  9
$TDCREATE
 40
2457375.5586302779
  9
$TDUPDATE
 40
2457378.9916089009
  9
$TDINDWG
 40
0.0001377662
  9
$TDUSRTIMER
 40
0.0001377662
  9
$USRTIMER
 70
     1
  9
$ANGBASE
 50
0.0
  9
$ANGDIR
 70
     0
  9
$PDMODE
 70
     0
  9
$PDSIZE
 40
0.0
  9
$PLINEWID
 40
0.0
  9
$COORDS
 70
     2
  9
$SPLFRAME
 70
     0
  9
$SPLINETYPE
 70
     6
  9
$SPLINESEGS
 70
     8
  9
$ATTDIA
 70
     0
  9
$ATTREQ
 70
     0
  9
$HANDLING
 70
     1
  9
$HANDSEED
  5
1A6
  9
$SURFTAB1
 70
     6
  9
$SURFTAB2
 70
     6
  9
$SURFTYPE
 70
     6
  9
$SURFU
 70
     6
  9
$SURFV
 70
     6
  9
$UCSNAME
  2

  9
$UCSORG
 10
0.0
 20
0.0
 30
0.0
  9
$UCSXDIR
 10
1.0
 20
0.0
 30
0.0
  9
$UCSYDIR
 10
0.0
 20
1.0
 30
0.0
  9
$PUCSNAME
  2

  9
$PUCSORG
 10
0.0
 20
0.0
 30
0.0
  9
$PUCSXDIR
 10
1.0
 20
0.0
 30
0.0
  9
$PUCSYDIR
 10
0.0
 20
1.0
 30
0.0
  9
$USERI1
 70
     0
  9
$USERI2
 70
     0
  9
$USERI3
 70
     0
  9
$USERI4
 70
     0
  9
$USERI5
 70
     0
  9
$USERR1
 40
0.0
  9
$USERR2
 40
0.0
  9
$USERR3
 40
0.0
  9
$USERR4
 40
0.0
  9
$USERR5
 40
0.0
  9
$WORLDVIEW
 70
     1
  9
$SHADEDGE
 70
     3
  9
$SHADEDIF
 70
    70
  9
$TILEMODE
 70
     1
  9
$MAXACTVP
 70
    64
  9
$PLIMCHECK
 70
     0
  9
$PEXTMIN
 10
0.0
 20
0.0
 30
0.0
  9
$PEXTMAX
 10
0.0
 20
0.0
 30
0.0
  9
$PLIMMIN
 10
0.0
 20
0.0
  9
$PLIMMAX
 10
12.0
 20
9.0
  9
$UNITMODE
 70
     0
  9
$VISRETAIN
 70
     1
  9
$PLINEGEN
 70
     0
  9
$PSLTSCALE
 70
     1
  0
ENDSEC
  0
SECTION
  2
TABLES
  0
TABLE
  2
VPORT
 70
     1
  0
VPORT
  2
*ACTIVE
 70
     0
 10
0.0
 20
0.0
 11
1.0
 21
1.0
 12
225.68799658724501
 22
247.23592906448229
 13
0.0
 23
0.0
 14
1.0
 24
1.0
 15
0.0
 25
0.0
 16
0.0
 26
0.0
 36
1.0
 17
0.0
 27
0.0
 37
0.0
 40
509.95233055347347
 41
1.7244755244755241
 42
50.0
 43
0.0
 44
0.0
 50
0.0
 51
0.0
 71
     0
 72
  1000
 73
     1
 74
     3
 75
     0
 76
     0
 77
     0
 78
     0
  0
ENDTAB
  0
TABLE
  2
LTYPE
 70
     2
  0
LTYPE
  2
CONTINUOUS
 70
     0
  3
Solid line
 72
    65
 73
     0
 40
0.0
  0
ENDTAB
  0
TABLE
  2
LAYER
 70
     6
  0
LAYER
  2
0
 70
     0
 62
     7
  6
CONTINUOUS
  0
LAYER
  2
DEFPOINTS
 70
     0
 62
     7
  6
CONTINUOUS
  0
ENDTAB
  0
TABLE
  2
STYLE
 70
     3
  0
STYLE
  2
STANDARD
 70
     0
 40
0.0
 41
1.0
 50
0.0
 71
     0
 42
0.2
  3
txt
  4

  0
STYLE
  2
ARIAL
 70
     0
 40
2.9505988023952101
 41
1.0
 50
0.0
 71
     0
 42
0.2
  3
txt
  4

  0
ENDTAB
  0
TABLE
  2
VIEW
 70
     0
  0
ENDTAB
  0
TABLE
  2
UCS
 70
     0
  0
ENDTAB
  0
TABLE
  2
APPID
 70
     5
  0
APPID
  2
ACAD
 70
     0
  0
APPID
  2
ACADANNOTATIVE
 70
     0
  0
APPID
  2
REVIT
 70
     0
  0
APPID
  2
ACAD_NAV_VCDISPLAY
 70
     0
  0
APPID
  2
ACAD_MLEADERVER
 70
     0
  0
ENDTAB
  0
TABLE
  2
DIMSTYLE
 70
     3
  0
DIMSTYLE
  2
STANDARD
 70
     0
  3

  4

  5

  6

  7

 40
1.0
 41
0.18
 42
0.0625
 43
0.38
 44
0.18
 45
0.0
 46
0.0
 47
0.0
 48
0.0
140
0.18
141
0.09
142
0.0
143
25.399999999999999
144
1.0
145
0.0
146
1.0
147
0.09
 71
     0
 72
     0
 73
     1
 74
     1
 75
     0
 76
     0
 77
     0
 78
     0
170
     0
171
     2
172
     0
173
     0
174
     0
175
     0
176
     0
177
     0
178
     0
  0
DIMSTYLE
  2
ANGULAR
 70
     0
  3
<>
  4

  5

  6
OBLIQUE
  7
OBLIQUE
 40
304.80000000000001
 41
0.0065616797900262
 42
0.0065616797900262
 43
0.38
 44
0.0065616797900262
 45
0.0
 46
0.0
 47
0.0
 48
0.0
140
3.0
141
0.09
142
0.0
143
25.399999999999999
144
1.0
145
1.0
146
1.0
147
0.0065616797900262
 71
     0
 72
     0
 73
     0
 74
     0
 75
     0
 76
     0
 77
     1
 78
     0
170
     0
171
     2
172
     1
173
     1
174
     1
175
     0
176
     0
177
     0
178
     0
  0
ENDTAB
  0
ENDSEC
  0
SECTION
  2
BLOCKS
  0
BLOCK
  8
0
  2
$MODEL_SPACE
 70
     0
 10
0.0
 20
0.0
 30
0.0
  3
$MODEL_SPACE
  1

  0
ENDBLK
  5
72
  8
0
  0
BLOCK
 67
     1
  8
0
  2
$PAPER_SPACE
 70
     0
 10
0.0
 20
0.0
 30
0.0
  3
$PAPER_SPACE
  1

  0
ENDBLK
  5
76
 67
     1
  8
0
  0
BLOCK
  8
0
  2
_OBLIQUE
 70
     0
 10
0.0
 20
0.0
 30
0.0
  3
_OBLIQUE
  1

  0
LINE
  5
BC
  8
0
  6
BYBLOCK
 62
     0
 10
-0.5
 20
-0.5
 30
0.0
 11
0.5
 21
0.5
 31
0.0
  0
ENDBLK
  5
BE
  8
0
  0
BLOCK
  8
0
  2
DIMBLOCK1-REF__LEVEL
 70
     0
 10
0.0
 20
0.0
 30
0.0
  3
DIMBLOCK1-REF__LEVEL
  1

  0
LINE
  5
EC
  8
0
 62
     0
 10
-65.810937024613835
 20
0.0
 30
0.0
 11
-61.810937024613899
 21
-0.0000000000000009
 31
0.0
  0
LINE
  5
ED
  8
0
 62
     0
 10
-65.287865715513533
 20
-11.792306327808321
 30
0.0
 11
-61.303575152742859
 21
-11.438147166673151
 31
0.0
  0
ARC
  5
EE
  8
0
 62
     0
 10
67.375580472329773
 20
0.0
 30
0.0
 40
131.18651749694359
 50
180.0
 51
185.07960786001451
  0
INSERT
  5
EF
  8
0
 62
     0
  2
_OBLIQUE
 10
-63.810937024613892
 20
0.0000000000000155
 30
0.0
 41
2.0
 42
2.0
 43
2.0
 50
90.0
  0
INSERT
  5
F0
  8
0
 62
     0
  2
_OBLIQUE
 10
-63.295720434128221
 20
-11.61522674724063
 30
0.0
 41
2.0
 42
2.0
 43
2.0
 50
275.07960786001462
  0
INSERT
  5
F1
  8
0
  2
*U3
 10
0.0
 20
0.0
 30
0.0
  0
POINT
  5
F2
  8
DEFPOINTS
 62
     0
 10
67.375580472329773
 20
0.0
 30
0.0
  0
POINT
  5
F3
  8
DEFPOINTS
 62
     0
 10
-67.810937024613835
 20
0.0
 30
0.0
  0
POINT
  5
F4
  8
DEFPOINTS
 62
     0
 10
-67.280010996898923
 20
-11.9693859083759
 30
0.0
  0
POINT
  5
F5
  8
DEFPOINTS
 62
     0
 10
-63.753657395160417
 20
-3.8762545410591862
 30
0.0
  0
ENDBLK
  5
B9
  8
0
  0
BLOCK
  8
0
  2
*U3
 70
     1
 10
0.0
 20
0.0
 30
0.0
  3
*U3
  1

  0
TEXT
  5
1A3
  8
0
 62
     0
 10
-61.839736715364282
 20
-0.942742922955859
 30
0.0
 40
2.9505988023952101
  1
5.08°
 50
272.53980393000739
  7
ARIAL
  0
ENDBLK
  5
1A5
  8
0
  0
ENDSEC
  0
SECTION
  2
ENTITIES
  0
LINE
  5
88
  8
0
 10
-117.374809492737
 20
-60.000000000000057
 30
0.0
 11
-117.374809492737
 21
50.007795742893272
 31
0.0
1001
REVIT
1002
{
1070
     1
1000
339052
1002
}
1002
{
1070
     2
1000
-2002000
1002
}
  0
LINE
  5
89
  8
0
 10
-117.374809492737
 20
50.007795742893272
 30
0.0
 11
117.3755804723299
 21
50.007795742893272
 31
0.0
1001
REVIT
1002
{
1070
     1
1000
339053
1002
}
1002
{
1070
     2
1000
-2002000
1002
}
  0
LINE
  5
8A
  8
0
 10
117.3755804723299
 20
50.007795742893272
 30
0.0
 11
117.3755804723299
 21
-60.000000000000057
 31
0.0
1001
REVIT
1002
{
1070
     1
1000
339054
1002
}
1002
{
1070
     2
1000
-2002000
1002
}
  0
LINE
  5
8B
  8
0
 10
117.3755804723299
 20
-60.000000000000057
 30
0.0
 11
67.375580472329773
 21
-60.000000000000057
 31
0.0
1001
REVIT
1002
{
1070
     1
1000
339055
1002
}
1002
{
1070
     2
1000
-2002000
1002
}
  0
LINE
  5
8C
  8
0
 10
67.375580472329773
 20
-60.000000000000057
 30
0.0
 11
67.375580472329773
 21
0.0
 31
0.0
1001
REVIT
1002
{
1070
     1
1000
339056
1002
}
1002
{
1070
     2
1000
-2002000
1002
}
1002
{
1070
     3
1000
206783
1002
}
  0
LINE
  5
8D
  8
0
 10
67.375580472329773
 20
0.0
 30
0.0
 11
-67.624419527670142
 21
-12.000000000000011
 31
0.0
1001
REVIT
1002
{
1070
     1
1000
339057
1002
}
1002
{
1070
     2
1000
-2002000
1002
}
1002
{
1070
     3
1000
206783
1002
}
  0
LINE
  5
8E
  8
0
 10
-67.624419527670113
 20
-12.000000000000011
 30
0.0
 11
-67.624419527670113
 21
-60.000000000000057
 31
0.0
1001
REVIT
1002
{
1070
     1
1000
339058
1002
}
1002
{
1070
     2
1000
-2002000
1002
}
1002
{
1070
     3
1000
206783
1002
}
  0
LINE
  5
8F
  8
0
 10
-67.624419527670113
 20
-60.000000000000057
 30
0.0
 11
-117.374809492737
 21
-60.000000000000057
 31
0.0
1001
REVIT
1002
{
1070
     1
1000
339059
1002
}
1002
{
1070
     2
1000
-2002000
1002
}
  0
LINE
  5
90
  8
0
 10
-241.30879231475481
 20
483.53219326087839
 30
0.0
 11
-145.84937685457101
 21
438.21663301938958
 31
0.0
1001
REVIT
1002
{
1070
     1
1000
339060
1002
}
1002
{
1070
     2
1000
-2002000
1002
}
  0
LINE
  5
91
  8
0
 10
-145.84937685457101
 20
438.21663301938958
 30
0.0
 11
-251.91539403255319
 21
376.97938944981018
 31
0.0
1001
REVIT
1002
{
1070
     1
1000
339061
1002
}
1002
{
1070
     2
1000
-2002000
1002
}
  0
LINE
  5
92
  8
0
 10
-251.91539403255319
 20
376.97938944981018
 30
0.0
 11
-347.37480949273697
 21
422.29494969129888
 31
0.0
1001
REVIT
1002
{
1070
     1
1000
339062
1002
}
1002
{
1070
     2
1000
-2002000
1002
}
  0
LINE
  5
93
  8
0
 10
-347.37480949273697
 20
422.29494969129888
 30
0.0
 11
-241.30879231475481
 21
483.53219326087839
 31
0.0
1001
REVIT
1002
{
1070
     1
1000
339063
1002
}
1002
{
1070
     2
1000
-2002000
1002
}
  0
LINE
  5
94
  8
0
 10
-241.30879231475481
 20
483.53219326087839
 30
0.0
 11
-145.84937685457101
 21
438.21663301938958
 31
0.0
1001
REVIT
1002
{
1070
     1
1000
339064
1002
}
1002
{
1070
     2
1000
-2002000
1002
}
  0
LINE
  5
95
  8
0
 10
-347.37480949273697
 20
422.29494969129883
 30
0.0
 11
-347.37480949273697
 21
383.10311380676808
 31
0.0
1001
REVIT
1002
{
1070
     1
1000
339065
1002
}
1002
{
1070
     2
1000
-2002000
1002
}
  0
LINE
  5
96
  8
0
 10
-347.37480949273697
 20
383.10311380676808
 30
0.0
 11
-310.12235467900661
 21
404.61082862144963
 31
0.0
1001
REVIT
1002
{
1070
     1
1000
339066
1002
}
1002
{
1070
     2
1000
-2002000
1002
}
  0
LINE
  5
97
  8
0
 10
-275.24991781170911
 20
463.9362753186129
 30
0.0
 11
-276.48763042572892
 21
464.6508690294965
 31
0.0
1001
REVIT
1002
{
1070
     1
1000
339067
1002
}
1002
{
1070
     2
1000
-2002000
1002
}
  0
LINE
  5
98
  8
0
 10
-276.48763042572892
 20
464.6508690294965
 30
0.0
 11
-276.48763042572892
 21
554.47185812896464
 31
0.0
1001
REVIT
1002
{
1070
     1
1000
339068
1002
}
1002
{
1070
     2
1000
-2002000
1002
}
  0
LINE
  5
99
  8
0
 10
-276.48763042572892
 20
554.47185812896464
 30
0.0
 11
-110.4940377952436
 21
458.63541274000079
 31
0.0
1001
REVIT
1002
{
1070
     1
1000
339069
1002
}
1002
{
1070
     2
1000
-2002000
1002
}
  0
LINE
  5
9A
  8
0
 10
-110.4940377952436
 20
458.63541274000079
 30
0.0
 11
-110.4940377952436
 21
368.81442364053282
 31
0.0
1001
REVIT
1002
{
1070
     1
1000
339070
1002
}
1002
{
1070
     2
1000
-2002000
1002
}
  0
LINE
  5
9B
  8
0
 10
-110.4940377952436
 20
368.81442364053282
 30
0.0
 11
-145.84937685457101
 21
389.22683816372597
 31
0.0
1001
REVIT
1002
{
1070
     1
1000
339071
1002
}
1002
{
1070
     2
1000
-2002000
1002
}
  0
LINE
  5
9C
  8
0
 10
-145.84937685457101
 20
389.22683816372597
 30
0.0
 11
-145.84937685457101
 21
438.21663301938958
 31
0.0
1001
REVIT
1002
{
1070
     1
1000
339072
1002
}
1002
{
1070
     2
1000
-2002000
1002
}
  0
LINE
  5
9D
  8
0
 10
-145.84937685457101
 20
438.21663301938958
 30
0.0
 11
-145.84937685457101
 21
389.22683816372597
 31
0.0
1001
REVIT
1002
{
1070
     1
1000
339073
1002
}
1002
{
1070
     2
1000
-2002000
1002
}
  0
LINE
  5
9E
  8
0
 10
-145.84937685457101
 20
389.22683816372597
 30
0.0
 11
-251.91539403255319
 21
327.98959459414658
 31
0.0
1001
REVIT
1002
{
1070
     1
1000
339074
1002
}
1002
{
1070
     2
1000
-2002000
1002
}
  0
LINE
  5
9F
  8
0
 10
-251.91539403255319
 20
327.98959459414658
 30
0.0
 11
-251.91539403255319
 21
376.97938944981018
 31
0.0
1001
REVIT
1002
{
1070
     1
1000
339075
1002
}
1002
{
1070
     2
1000
-2002000
1002
}
  0
LINE
  5
A0
  8
0
 10
-356.86050011633228
 20
50.00779574289367
 30
0.0
 11
-356.86050011633228
 21
0.0000000000003553
 31
0.0
1001
REVIT
1002
{
1070
     1
1000
339076
1002
}
1002
{
1070
     2
1000
-2002000
1002
}
  0
LINE
  5
A1
  8
0
 10
-356.86050011633239
 20
-59.999999999999702
 30
0.0
 11
-456.86050011633239
 21
-59.999999999999702
 31
0.0
1001
REVIT
1002
{
1070
     1
1000
339077
1002
}
1002
{
1070
     2
1000
-2002000
1002
}
  0
LINE
  5
A2
  8
0
 10
-456.86050011633239
 20
-59.999999999999702
 30
0.0
 11
-456.86050011633239
 21
0.0000000000003553
 31
0.0
1001
REVIT
1002
{
1070
     1
1000
339078
1002
}
1002
{
1070
     2
1000
-2002000
1002
}
  0
LINE
  5
A3
  8
0
 10
-456.86050011633239
 20
0.0000000000003553
 30
0.0
 11
-356.86050011633228
 21
0.0000000000003553
 31
0.0
1001
REVIT
1002
{
1070
     1
1000
339079
1002
}
1002
{
1070
     2
1000
-2002000
1002
}
  0
LINE
  5
A6
  8
0
 10
-456.86050011633239
 20
-11.99999999999965
 30
0.0
 11
-356.86050011633228
 21
-11.99999999999965
 31
0.0
1001
REVIT
1002
{
1070
     1
1000
339080
1002
}
1002
{
1070
     2
1000
-2002000
1002
}
1002
{
1070
     3
1000
-2009514
1002
}
  0
LINE
  5
A7
  8
0
 10
-356.86050011633228
 20
0.0000000000003553
 30
0.0
 11
-356.86050011633239
 21
-59.999999999999702
 31
0.0
1001
REVIT
1002
{
1070
     1
1000
339081
1002
}
1002
{
1070
     2
1000
-2002000
1002
}
  0
ENDSEC
  0
EOF
