  0
SECTION
  2
HEADER
  9
$ACADVER
  1
AC1009
  9
$INSBASE
 10
0.0
 20
0.0
 30
0.0
  9
$EXTMIN
 10
-22.0559833794402
 20
-61.73658443530126
 30
0.0
  9
$EXTMAX
 10
75.676621195688469
 20
61.0
 30
0.0
  9
$LIMMIN
 10
0.0
 20
0.0
  9
$LIMMAX
 10
12.0
 20
9.0
  9
$ORTHOMODE
 70
     0
  9
$REGENMODE
 70
     1
  9
$FILLMODE
 70
     1
  9
$QTEXTMODE
 70
     0
  9
$MIRRTEXT
 70
     0
  9
$DRAGMODE
 70
     2
  9
$LTSCALE
 40
1.0
  9
$OSMODE
 70
   127
  9
$ATTMODE
 70
     1
  9
$TEXTSIZE
 40
0.2
  9
$TRACEWID
 40
0.05
  9
$TEXTSTYLE
  7
STANDARD
  9
$CLAYER
  8
0
  9
$CELTYPE
  6
BYLAYER
  9
$CECOLOR
 62
   256
  9
$DIMSCALE
 40
1.0
  9
$DIMASZ
 40
0.18
  9
$DIMEXO
 40
0.0625
  9
$DIMDLI
 40
0.38
  9
$DIMRND
 40
0.0
  9
$DIMDLE
 40
0.0
  9
$DIMEXE
 40
0.18
  9
$DIMTP
 40
0.0
  9
$DIMTM
 40
0.0
  9
$DIMTXT
 40
0.18
  9
$DIMCEN
 40
0.09
  9
$DIMTSZ
 40
0.0
  9
$DIMTOL
 70
     0
  9
$DIMLIM
 70
     0
  9
$DIMTIH
 70
     1
  9
$DIMTOH
 70
     1
  9
$DIMSE1
 70
     0
  9
$DIMSE2
 70
     0
  9
$DIMTAD
 70
     0
  9
$DIMZIN
 70
     0
  9
$DIMBLK
  1

  9
$DIMASO
 70
     1
  9
$DIMSHO
 70
     1
  9
$DIMPOST
  1

  9
$DIMAPOST
  1

  9
$DIMALT
 70
     0
  9
$DIMALTD
 70
     2
  9
$DIMALTF
 40
25.399999999999999
  9
$DIMLFAC
 40
1.0
  9
$DIMTOFL
 70
     0
  9
$DIMTVP
 40
0.0
  9
$DIMTIX
 70
     0
  9
$DIMSOXD
 70
     0
  9
$DIMSAH
 70
     0
  9
$DIMBLK1
  1

  9
$DIMBLK2
  1

  9
$DIMSTYLE
  2
STANDARD
  9
$DIMCLRD
 70
     0
  9
$DIMCLRE
 70
     0
  9
$DIMCLRT
 70
     0
  9
$DIMTFAC
 40
1.0
  9
$DIMGAP
 40
0.09
  9
$LUNITS
 70
     2
  9
$LUPREC
 70
     4
  9
$SKETCHINC
 40
0.1
  9
$FILLETRAD
 40
0.0
  9
$AUNITS
 70
     0
  9
$AUPREC
 70
     0
  9
$MENU
  1
.
  9
$ELEVATION
 40
0.0
  9
$PELEVATION
 40
0.0
  9
$THICKNESS
 40
0.0
  9
$LIMCHECK
 70
     0
  9
$BLIPMODE
 70
     0
  9
$CHAMFERA
 40
0.0
  9
$CHAMFERB
 40
0.0
  9
$SKPOLY
 70
     0
  9
$TDCREATE
 40
2457375.5619889009
  9
$TDUPDATE
 40
2457378.9909367128
  9
$TDINDWG
 40
0.0001375579
  9
$TDUSRTIMER
 40
0.0001375579
  9
$USRTIMER
 70
     1
  9
$ANGBASE
 50
0.0
  9
$ANGDIR
 70
     0
  9
$PDMODE
 70
     0
  9
$PDSIZE
 40
0.0
  9
$PLINEWID
 40
0.0
  9
$COORDS
 70
     2
  9
$SPLFRAME
 70
     0
  9
$SPLINETYPE
 70
     6
  9
$SPLINESEGS
 70
     8
  9
$ATTDIA
 70
     0
  9
$ATTREQ
 70
     0
  9
$HANDLING
 70
     1
  9
$HANDSEED
  5
22B
  9
$SURFTAB1
 70
     6
  9
$SURFTAB2
 70
     6
  9
$SURFTYPE
 70
     6
  9
$SURFU
 70
     6
  9
$SURFV
 70
     6
  9
$UCSNAME
  2

  9
$UCSORG
 10
0.0
 20
0.0
 30
0.0
  9
$UCSXDIR
 10
1.0
 20
0.0
 30
0.0
  9
$UCSYDIR
 10
0.0
 20
1.0
 30
0.0
  9
$PUCSNAME
  2

  9
$PUCSORG
 10
0.0
 20
0.0
 30
0.0
  9
$PUCSXDIR
 10
1.0
 20
0.0
 30
0.0
  9
$PUCSYDIR
 10
0.0
 20
1.0
 30
0.0
  9
$USERI1
 70
     0
  9
$USERI2
 70
     0
  9
$USERI3
 70
     0
  9
$USERI4
 70
     0
  9
$USERI5
 70
     0
  9
$USERR1
 40
0.0
  9
$USERR2
 40
0.0
  9
$USERR3
 40
0.0
  9
$USERR4
 40
0.0
  9
$USERR5
 40
0.0
  9
$WORLDVIEW
 70
     1
  9
$SHADEDGE
 70
     3
  9
$SHADEDIF
 70
    70
  9
$TILEMODE
 70
     1
  9
$MAXACTVP
 70
    64
  9
$PLIMCHECK
 70
     0
  9
$PEXTMIN
 10
0.0
 20
0.0
 30
0.0
  9
$PEXTMAX
 10
0.0
 20
0.0
 30
0.0
  9
$PLIMMIN
 10
0.0
 20
0.0
  9
$PLIMMAX
 10
12.0
 20
9.0
  9
$UNITMODE
 70
     0
  9
$VISRETAIN
 70
     1
  9
$PLINEGEN
 70
     0
  9
$PSLTSCALE
 70
     1
  0
ENDSEC
  0
SECTION
  2
TABLES
  0
TABLE
  2
VPORT
 70
     1
  0
VPORT
  2
*ACTIVE
 70
     0
 10
0.0
 20
0.0
 11
1.0
 21
1.0
 12
114.5576016553478
 22
-0.1424308794743325
 13
0.0
 23
0.0
 14
1.0
 24
1.0
 15
0.0
 25
0.0
 16
0.0
 26
0.0
 36
1.0
 17
0.0
 27
0.0
 37
0.0
 40
101.4846317539529
 41
1.7244755244755241
 42
50.0
 43
0.0
 44
0.0
 50
0.0
 51
0.0
 71
     0
 72
  1000
 73
     1
 74
     3
 75
     0
 76
     0
 77
     0
 78
     0
  0
ENDTAB
  0
TABLE
  2
LTYPE
 70
     1
  0
LTYPE
  2
CONTINUOUS
 70
     0
  3
Solid line
 72
    65
 73
     0
 40
0.0
  0
ENDTAB
  0
TABLE
  2
LAYER
 70
     5
  0
LAYER
  2
0
 70
     0
 62
     7
  6
CONTINUOUS
  0
LAYER
  2
DEFPOINTS
 70
     0
 62
     7
  6
CONTINUOUS
  0
ENDTAB
  0
TABLE
  2
STYLE
 70
     3
  0
STYLE
  2
STANDARD
 70
     0
 40
0.0
 41
1.0
 50
0.0
 71
     0
 42
0.2
  3
txt
  4

  0
STYLE
  2
ARIAL
 70
     0
 40
2.9505988023952101
 41
1.0
 50
0.0
 71
     0
 42
0.2
  3
txt
  4

  0
ENDTAB
  0
TABLE
  2
VIEW
 70
     0
  0
ENDTAB
  0
TABLE
  2
UCS
 70
     0
  0
ENDTAB
  0
TABLE
  2
APPID
 70
     5
  0
APPID
  2
ACAD
 70
     0
  0
APPID
  2
ACADANNOTATIVE
 70
     0
  0
APPID
  2
REVIT
 70
     0
  0
APPID
  2
ACAD_NAV_VCDISPLAY
 70
     0
  0
APPID
  2
ACAD_MLEADERVER
 70
     0
  0
ENDTAB
  0
TABLE
  2
DIMSTYLE
 70
     4
  0
DIMSTYLE
  2
STANDARD
 70
     0
  3

  4

  5

  6

  7

 40
1.0
 41
0.18
 42
0.0625
 43
0.38
 44
0.18
 45
0.0
 46
0.0
 47
0.0
 48
0.0
140
0.18
141
0.09
142
0.0
143
25.399999999999999
144
1.0
145
0.0
146
1.0
147
0.09
 71
     0
 72
     0
 73
     1
 74
     1
 75
     0
 76
     0
 77
     0
 78
     0
170
     0
171
     2
172
     0
173
     0
174
     0
175
     0
176
     0
177
     0
178
     0
  0
DIMSTYLE
  2
LINEAR
 70
     0
  3
<>
  4

  5

  6
OBLIQUE
  7
OBLIQUE
 40
304.80000000000001
 41
0.0065616797900262
 42
0.0065616797900262
 43
0.38
 44
0.0065616797900262
 45
0.01
 46
0.0
 47
0.0
 48
0.0
140
3.0
141
0.09
142
0.0
143
25.399999999999999
144
1.0
145
1.0
146
1.0
147
0.0065616797900262
 71
     0
 72
     0
 73
     0
 74
     0
 75
     0
 76
     0
 77
     1
 78
     0
170
     0
171
     2
172
     1
173
     1
174
     1
175
     0
176
     0
177
     0
178
     0
  0
DIMSTYLE
  2
ANGULAR
 70
     0
  3
<>
  4

  5

  6
OBLIQUE
  7
OBLIQUE
 40
304.80000000000001
 41
0.0065616797900262
 42
0.0065616797900262
 43
0.38
 44
0.0065616797900262
 45
0.0
 46
0.0
 47
0.0
 48
0.0
140
3.0
141
0.09
142
0.0
143
25.399999999999999
144
1.0
145
1.0
146
1.0
147
0.0065616797900262
 71
     0
 72
     0
 73
     0
 74
     0
 75
     0
 76
     0
 77
     1
 78
     0
170
     0
171
     2
172
     1
173
     1
174
     1
175
     0
176
     0
177
     0
178
     0
  0
ENDTAB
  0
ENDSEC
  0
SECTION
  2
BLOCKS
  0
BLOCK
  8
0
  2
$MODEL_SPACE
 70
     0
 10
0.0
 20
0.0
 30
0.0
  3
$MODEL_SPACE
  1

  0
ENDBLK
  5
72
  8
0
  0
BLOCK
 67
     1
  8
0
  2
$PAPER_SPACE
 70
     0
 10
0.0
 20
0.0
 30
0.0
  3
$PAPER_SPACE
  1

  0
ENDBLK
  5
76
 67
     1
  8
0
  0
BLOCK
  8
0
  2
_OBLIQUE
 70
     0
 10
0.0
 20
0.0
 30
0.0
  3
_OBLIQUE
  1

  0
LINE
  5
9E
  8
0
  6
BYBLOCK
 62
     0
 10
-0.5
 20
-0.5
 30
0.0
 11
0.5
 21
0.5
 31
0.0
  0
ENDBLK
  5
A0
  8
0
  0
BLOCK
  8
0
  2
DIMBLOCK1-REF__LEVEL
 70
     0
 10
0.0
 20
0.0
 30
0.0
  3
DIMBLOCK1-REF__LEVEL
  1

  0
LINE
  5
162
  8
0
 62
     0
 10
-16.03332547163048
 20
60.0
 30
0.0
 11
-17.447539034003761
 21
60.0
 31
0.0
  0
LINE
  5
163
  8
0
 62
     0
 10
-16.03332547163058
 20
-0.000000000000004
 30
0.0
 11
-17.447539034003771
 21
-0.0000000000000036
 31
0.0
  0
LINE
  5
164
  8
0
 62
     0
 10
-15.447539034003761
 20
59.999999999999993
 30
0.0
 11
-15.447539034003769
 21
-0.0000000000000042
 31
0.0
  0
INSERT
  5
165
  8
0
 62
     0
  2
_OBLIQUE
 10
-15.447539034003761
 20
59.999999999999993
 30
0.0
 41
2.0
 42
2.0
 43
2.0
 50
90.0
  0
INSERT
  5
166
  8
0
 62
     0
  2
_OBLIQUE
 10
-15.447539034003769
 20
-0.0000000000000042
 30
0.0
 41
2.0
 42
2.0
 43
2.0
 50
270.0
  0
INSERT
  5
167
  8
0
  2
*U11
 10
0.0
 20
0.0
 30
0.0
  0
POINT
  5
168
  8
DEFPOINTS
 62
     0
 10
-14.03332547163048
 20
59.999999999999993
 30
0.0
  0
POINT
  5
169
  8
DEFPOINTS
 62
     0
 10
-14.03332547163058
 20
-0.0000000000000046
 30
0.0
  0
POINT
  5
16A
  8
DEFPOINTS
 62
     0
 10
-15.447539034003769
 20
-0.0000000000000042
 30
0.0
  0
ENDBLK
  5
9B
  8
0
  0
BLOCK
  8
0
  2
DIMBLOCK2-REF__LEVEL
 70
     0
 10
0.0
 20
0.0
 30
0.0
  3
DIMBLOCK2-REF__LEVEL
  1

  0
LINE
  5
159
  8
0
 62
     0
 10
50.296291314453299
 20
-12.94095225512619
 30
0.0
 11
61.322603445752449
 21
-12.94095225512619
 31
0.0
  0
LINE
  5
15A
  8
0
 62
     0
 10
50.296291314453242
 20
-47.94095225512617
 30
0.0
 11
61.322603445752442
 21
-47.94095225512617
 31
0.0
  0
LINE
  5
15B
  8
0
 62
     0
 10
59.322603445752449
 20
-12.94095225512619
 30
0.0
 11
59.322603445752442
 21
-47.94095225512617
 31
0.0
  0
INSERT
  5
15C
  8
0
 62
     0
  2
_OBLIQUE
 10
59.322603445752449
 20
-12.94095225512619
 30
0.0
 41
2.0
 42
2.0
 43
2.0
 50
90.0
  0
INSERT
  5
15D
  8
0
 62
     0
  2
_OBLIQUE
 10
59.322603445752442
 20
-47.94095225512617
 30
0.0
 41
2.0
 42
2.0
 43
2.0
 50
270.0
  0
INSERT
  5
15E
  8
0
  2
*U10
 10
0.0
 20
0.0
 30
0.0
  0
POINT
  5
15F
  8
DEFPOINTS
 62
     0
 10
48.296291314453292
 20
-12.94095225512619
 30
0.0
  0
POINT
  5
160
  8
DEFPOINTS
 62
     0
 10
48.296291314453242
 20
-47.94095225512617
 30
0.0
  0
POINT
  5
161
  8
DEFPOINTS
 62
     0
 10
59.322603445752442
 20
-47.94095225512617
 30
0.0
  0
ENDBLK
  5
BC
  8
0
  0
BLOCK
  8
0
  2
DIMBLOCK3-REF__LEVEL
 70
     0
 10
0.0
 20
0.0
 30
0.0
  3
DIMBLOCK3-REF__LEVEL
  1

  0
LINE
  5
14E
  8
0
 62
     0
 10
46.882077752080129
 20
-49.355165817499262
 30
0.0
 11
38.487915716563471
 21
-57.749327853015878
 31
0.0
  0
LINE
  5
14F
  8
0
 62
     0
 10
50.417611658012859
 20
-52.890699723432
 30
0.0
 11
42.023449622496187
 21
-61.28486175894863
 31
0.0
  0
LINE
  5
150
  8
0
 62
     0
 10
39.90212927893657
 20
-56.335114290642792
 30
0.0
 11
38.487915716563471
 21
-54.920900728269693
 31
0.0
  0
LINE
  5
151
  8
0
 62
     0
 10
43.437663184869287
 20
-59.870648196575537
 30
0.0
 11
44.851876747242379
 21
-61.28486175894863
 31
0.0
  0
LINE
  5
152
  8
0
 62
     0
 10
39.90212927893657
 20
-56.335114290642792
 30
0.0
 11
43.437663184869287
 21
-59.870648196575537
 31
0.0
  0
INSERT
  5
153
  8
0
 62
     0
  2
_OBLIQUE
 10
39.90212927893657
 20
-56.335114290642792
 30
0.0
 41
2.0
 42
2.0
 43
2.0
 50
314.99999999999989
  0
INSERT
  5
154
  8
0
 62
     0
  2
_OBLIQUE
 10
43.437663184869287
 20
-59.870648196575537
 30
0.0
 41
2.0
 42
2.0
 43
2.0
 50
134.99999999999989
  0
INSERT
  5
155
  8
0
  2
*U9
 10
0.0
 20
0.0
 30
0.0
  0
POINT
  5
156
  8
DEFPOINTS
 62
     0
 10
48.296291314453228
 20
-47.940952255126163
 30
0.0
  0
POINT
  5
157
  8
DEFPOINTS
 62
     0
 10
51.831825220385959
 20
-51.476486161058901
 30
0.0
  0
POINT
  5
158
  8
DEFPOINTS
 62
     0
 10
43.437663184869287
 20
-59.870648196575537
 30
0.0
  0
ENDBLK
  5
D6
  8
0
  0
BLOCK
  8
0
  2
DIMBLOCK4-REF__LEVEL
 70
     0
 10
0.0
 20
0.0
 30
0.0
  3
DIMBLOCK4-REF__LEVEL
  1

  0
LINE
  5
144
  8
0
 62
     0
 10
71.166151206632009
 20
-19.068912744248461
 30
0.0
 11
67.302447901475716
 21
-18.03363656383836
 31
0.0
  0
LINE
  5
145
  8
0
 62
     0
 10
73.676621195688469
 20
-0.0000000000000195
 30
0.0
 11
69.676621195688455
 21
-0.0000000000000178
 31
0.0
  0
ARC
  5
146
  8
0
 62
     0
 10
0.0
 20
0.0
 30
0.0
 40
71.676621195688455
 50
344.99999999999989
 51
0.0
  0
INSERT
  5
147
  8
0
 62
     0
  2
_OBLIQUE
 10
69.234299554053862
 20
-18.551274654043379
 30
0.0
 41
2.0
 42
2.0
 43
2.0
 50
254.9999999999998
  0
INSERT
  5
148
  8
0
 62
     0
  2
_OBLIQUE
 10
71.676621195688455
 20
-0.0000000000000338
 30
0.0
 41
2.0
 42
2.0
 43
2.0
 50
90.0
  0
INSERT
  5
149
  8
0
  2
*U8
 10
0.0
 20
0.0
 30
0.0
  0
POINT
  5
14A
  8
DEFPOINTS
 62
     0
 10
0.0
 20
0.0
 30
0.0
  0
POINT
  5
14B
  8
DEFPOINTS
 62
     0
 10
73.098002859210141
 20
-19.586550834453512
 30
0.0
  0
POINT
  5
14C
  8
DEFPOINTS
 62
     0
 10
75.676621195688469
 20
-0.0000000000000213
 30
0.0
  0
POINT
  5
14D
  8
DEFPOINTS
 62
     0
 10
70.587692263233109
 20
-12.44651465195431
 30
0.0
  0
ENDBLK
  5
F4
  8
0
  0
BLOCK
  8
0
  2
DIMBLOCK5-REF__LEVEL
 70
     0
 10
0.0
 20
0.0
 30
0.0
  3
DIMBLOCK5-REF__LEVEL
  1

  0
LINE
  5
13B
  8
0
 62
     0
 10
-0.5176380902051241
 20
-1.931851652578134
 30
0.0
 11
-4.0265852356966301
 21
-15.02742068062604
 31
0.0
  0
LINE
  5
13C
  8
0
 62
     0
 10
47.778653224248252
 20
-14.872803907704309
 30
0.0
 11
44.269706078756741
 21
-27.968372935752239
 31
0.0
  0
LINE
  5
13D
  8
0
 62
     0
 10
-3.5089471454915819
 20
-13.09556902804791
 30
0.0
 11
44.787344168961788
 21
-26.0365212831741
 31
0.0
  0
INSERT
  5
13E
  8
0
 62
     0
  2
_OBLIQUE
 10
-3.5089471454915819
 20
-13.09556902804791
 30
0.0
 41
2.0
 42
2.0
 43
2.0
 50
164.9999999999998
  0
INSERT
  5
13F
  8
0
 62
     0
  2
_OBLIQUE
 10
44.787344168961788
 20
-26.0365212831741
 30
0.0
 41
2.0
 42
2.0
 43
2.0
 50
344.99999999999977
  0
INSERT
  5
140
  8
0
  2
*U7
 10
0.0
 20
0.0
 30
0.0
  0
POINT
  5
141
  8
DEFPOINTS
 62
     0
 10
-0.0000000000000761
 20
0.0
 30
0.0
  0
POINT
  5
142
  8
DEFPOINTS
 62
     0
 10
48.296291314453292
 20
-12.940952255126181
 30
0.0
  0
POINT
  5
143
  8
DEFPOINTS
 62
     0
 10
44.787344168961788
 20
-26.0365212831741
 30
0.0
  0
ENDBLK
  5
110
  8
0
  0
BLOCK
  8
0
  2
*U7
 70
     1
 10
0.0
 20
0.0
 30
0.0
  3
*U7
  1

  0
TEXT
  5
218
  8
0
 62
     0
 10
16.20228714092282
 20
-16.248282749336141
 30
0.0
 40
2.9505988023952101
  1
50.00
 50
344.99999999999977
  7
ARIAL
  0
ENDBLK
  5
21A
  8
0
  0
BLOCK
  8
0
  2
*U8
 70
     1
 10
0.0
 20
0.0
 30
0.0
  3
*U8
  1

  0
TEXT
  5
21C
  8
0
 62
     0
 10
68.232457940360206
 20
-15.10460183329471
 30
0.0
 40
2.9505988023952101
  1
15.00°
 50
82.499999999999915
  7
ARIAL
  0
ENDBLK
  5
21E
  8
0
  0
BLOCK
  8
0
  2
*U9
 70
     1
 10
0.0
 20
0.0
 30
0.0
  3
*U9
  1

  0
TEXT
  5
220
  8
0
 62
     0
 10
40.296803024857802
 20
-53.82166258192894
 30
0.0
 40
2.9505988023952101
  1
5.00
 50
314.99999999999989
  7
ARIAL
  0
ENDBLK
  5
222
  8
0
  0
BLOCK
  8
0
  2
*U10
 70
     1
 10
0.0
 20
0.0
 30
0.0
  3
*U10
  1

  0
TEXT
  5
224
  8
0
 62
     0
 10
57.264235529470412
 20
-35.586385978402681
 30
0.0
 40
2.9505988023952101
  1
35.00
 50
90.0
  7
ARIAL
  0
ENDBLK
  5
226
  8
0
  0
BLOCK
  8
0
  2
*U11
 70
     1
 10
0.0
 20
0.0
 30
0.0
  3
*U11
  1

  0
TEXT
  5
228
  8
0
 62
     0
 10
-17.503894263517459
 20
24.863623367181042
 30
0.0
 40
2.9505988023952101
  1
60.00
 50
90.0
  7
ARIAL
  0
ENDBLK
  5
22A
  8
0
  0
ENDSEC
  0
SECTION
  2
ENTITIES
  0
LINE
  5
88
  8
0
 10
0.0000000000000205
 20
59.999999999999943
 30
0.0
 11
-0.0000000000000766
 21
0.0
 31
0.0
1001
REVIT
1002
{
1070
     1
1000
237194
1002
}
1002
{
1070
     2
1000
-2002000
1002
}
1002
{
1070
     3
1000
206783
1002
}
  0
LINE
  5
89
  8
0
 10
-0.0000000000000745
 20
-0.0000000000000007
 30
0.0
 11
48.296291314453292
 21
-12.940952255126181
 31
0.0
1001
REVIT
1002
{
1070
     1
1000
237199
1002
}
1002
{
1070
     2
1000
-2002000
1002
}
1002
{
1070
     3
1000
206783
1002
}
  0
LINE
  5
8A
  8
0
 10
48.296291314453292
 20
-12.940952255126181
 30
0.0
 11
48.296291314453242
 21
-47.94095225512617
 31
0.0
1001
REVIT
1002
{
1070
     1
1000
237200
1002
}
1002
{
1070
     2
1000
-2002000
1002
}
1002
{
1070
     3
1000
206783
1002
}
  0
LINE
  5
8B
  8
0
 10
48.296291314453242
 20
-47.94095225512617
 30
0.0
 11
51.831825220385973
 21
-51.476486161058922
 31
0.0
1001
REVIT
1002
{
1070
     1
1000
237201
1002
}
1002
{
1070
     2
1000
-2002000
1002
}
1002
{
1070
     3
1000
206783
1002
}
  0
ENDSEC
  0
EOF
