  0
SECTION
  2
HEADER
  9
$ACADVER
  1
AC1009
  9
$INSBASE
 10
0.0
 20
0.0
 30
0.0
  9
$EXTMIN
 10
-33.078222903028077
 20
-41.751302319100908
 30
0.0
  9
$EXTMAX
 10
46.342027243354742
 20
97.999999999999986
 30
0.0
  9
$LIMMIN
 10
0.0
 20
0.0
  9
$LIMMAX
 10
12.0
 20
9.0
  9
$ORTHOMODE
 70
     0
  9
$REGENMODE
 70
     1
  9
$FILLMODE
 70
     1
  9
$QTEXTMODE
 70
     0
  9
$MIRRTEXT
 70
     0
  9
$DRAGMODE
 70
     2
  9
$LTSCALE
 40
1.0
  9
$OSMODE
 70
   127
  9
$ATTMODE
 70
     1
  9
$TEXTSIZE
 40
0.2
  9
$TRACEWID
 40
0.05
  9
$TEXTSTYLE
  7
STANDARD
  9
$CLAYER
  8
0
  9
$CELTYPE
  6
BYLAYER
  9
$CECOLOR
 62
   256
  9
$DIMSCALE
 40
1.0
  9
$DIMASZ
 40
0.18
  9
$DIMEXO
 40
0.0625
  9
$DIMDLI
 40
0.38
  9
$DIMRND
 40
0.0
  9
$DIMDLE
 40
0.0
  9
$DIMEXE
 40
0.18
  9
$DIMTP
 40
0.0
  9
$DIMTM
 40
0.0
  9
$DIMTXT
 40
0.18
  9
$DIMCEN
 40
0.09
  9
$DIMTSZ
 40
0.0
  9
$DIMTOL
 70
     0
  9
$DIMLIM
 70
     0
  9
$DIMTIH
 70
     1
  9
$DIMTOH
 70
     1
  9
$DIMSE1
 70
     0
  9
$DIMSE2
 70
     0
  9
$DIMTAD
 70
     0
  9
$DIMZIN
 70
     0
  9
$DIMBLK
  1

  9
$DIMASO
 70
     1
  9
$DIMSHO
 70
     1
  9
$DIMPOST
  1

  9
$DIMAPOST
  1

  9
$DIMALT
 70
     0
  9
$DIMALTD
 70
     2
  9
$DIMALTF
 40
25.399999999999999
  9
$DIMLFAC
 40
1.0
  9
$DIMTOFL
 70
     0
  9
$DIMTVP
 40
0.0
  9
$DIMTIX
 70
     0
  9
$DIMSOXD
 70
     0
  9
$DIMSAH
 70
     0
  9
$DIMBLK1
  1

  9
$DIMBLK2
  1

  9
$DIMSTYLE
  2
STANDARD
  9
$DIMCLRD
 70
     0
  9
$DIMCLRE
 70
     0
  9
$DIMCLRT
 70
     0
  9
$DIMTFAC
 40
1.0
  9
$DIMGAP
 40
0.09
  9
$LUNITS
 70
     2
  9
$LUPREC
 70
     4
  9
$SKETCHINC
 40
0.1
  9
$FILLETRAD
 40
0.0
  9
$AUNITS
 70
     0
  9
$AUPREC
 70
     0
  9
$MENU
  1
.
  9
$ELEVATION
 40
0.0
  9
$PELEVATION
 40
0.0
  9
$THICKNESS
 40
0.0
  9
$LIMCHECK
 70
     0
  9
$BLIPMODE
 70
     0
  9
$CHAMFERA
 40
0.0
  9
$CHAMFERB
 40
0.0
  9
$SKPOLY
 70
     0
  9
$TDCREATE
 40
2457375.5617400231
  9
$TDUPDATE
 40
2457378.9901268291
  9
$TDINDWG
 40
0.0001026157
  9
$TDUSRTIMER
 40
0.0001026157
  9
$USRTIMER
 70
     1
  9
$ANGBASE
 50
0.0
  9
$ANGDIR
 70
     0
  9
$PDMODE
 70
     0
  9
$PDSIZE
 40
0.0
  9
$PLINEWID
 40
0.0
  9
$COORDS
 70
     2
  9
$SPLFRAME
 70
     0
  9
$SPLINETYPE
 70
     6
  9
$SPLINESEGS
 70
     8
  9
$ATTDIA
 70
     0
  9
$ATTREQ
 70
     0
  9
$HANDLING
 70
     1
  9
$HANDSEED
  5
205
  9
$SURFTAB1
 70
     6
  9
$SURFTAB2
 70
     6
  9
$SURFTYPE
 70
     6
  9
$SURFU
 70
     6
  9
$SURFV
 70
     6
  9
$UCSNAME
  2

  9
$UCSORG
 10
0.0
 20
0.0
 30
0.0
  9
$UCSXDIR
 10
1.0
 20
0.0
 30
0.0
  9
$UCSYDIR
 10
0.0
 20
1.0
 30
0.0
  9
$PUCSNAME
  2

  9
$PUCSORG
 10
0.0
 20
0.0
 30
0.0
  9
$PUCSXDIR
 10
1.0
 20
0.0
 30
0.0
  9
$PUCSYDIR
 10
0.0
 20
1.0
 30
0.0
  9
$USERI1
 70
     0
  9
$USERI2
 70
     0
  9
$USERI3
 70
     0
  9
$USERI4
 70
     0
  9
$USERI5
 70
     0
  9
$USERR1
 40
0.0
  9
$USERR2
 40
0.0
  9
$USERR3
 40
0.0
  9
$USERR4
 40
0.0
  9
$USERR5
 40
0.0
  9
$WORLDVIEW
 70
     1
  9
$SHADEDGE
 70
     3
  9
$SHADEDIF
 70
    70
  9
$TILEMODE
 70
     1
  9
$MAXACTVP
 70
    64
  9
$PLIMCHECK
 70
     0
  9
$PEXTMIN
 10
0.0
 20
0.0
 30
0.0
  9
$PEXTMAX
 10
0.0
 20
0.0
 30
0.0
  9
$PLIMMIN
 10
0.0
 20
0.0
  9
$PLIMMAX
 10
12.0
 20
9.0
  9
$UNITMODE
 70
     0
  9
$VISRETAIN
 70
     1
  9
$PLINEGEN
 70
     0
  9
$PSLTSCALE
 70
     1
  0
ENDSEC
  0
SECTION
  2
TABLES
  0
TABLE
  2
VPORT
 70
     1
  0
VPORT
  2
*ACTIVE
 70
     0
 10
0.0
 20
0.0
 11
1.0
 21
1.0
 12
122.1559673180149
 22
28.124348840449539
 13
0.0
 23
0.0
 14
1.0
 24
1.0
 15
0.0
 25
0.0
 16
0.0
 26
0.0
 36
1.0
 17
0.0
 27
0.0
 37
0.0
 40
115.9800914764614
 41
1.7244755244755241
 42
50.0
 43
0.0
 44
0.0
 50
0.0
 51
0.0
 71
     0
 72
  1000
 73
     1
 74
     3
 75
     0
 76
     0
 77
     0
 78
     0
  0
ENDTAB
  0
TABLE
  2
LTYPE
 70
     2
  0
LTYPE
  2
CONTINUOUS
 70
     0
  3
Solid line
 72
    65
 73
     0
 40
0.0
  0
ENDTAB
  0
TABLE
  2
LAYER
 70
     5
  0
LAYER
  2
0
 70
     0
 62
     7
  6
CONTINUOUS
  0
LAYER
  2
DEFPOINTS
 70
     0
 62
     7
  6
CONTINUOUS
  0
ENDTAB
  0
TABLE
  2
STYLE
 70
     3
  0
STYLE
  2
STANDARD
 70
     0
 40
0.0
 41
1.0
 50
0.0
 71
     0
 42
0.2
  3
txt
  4

  0
STYLE
  2
ARIAL
 70
     0
 40
2.9505988023952101
 41
1.0
 50
0.0
 71
     0
 42
0.2
  3
txt
  4

  0
ENDTAB
  0
TABLE
  2
VIEW
 70
     0
  0
ENDTAB
  0
TABLE
  2
UCS
 70
     0
  0
ENDTAB
  0
TABLE
  2
APPID
 70
     5
  0
APPID
  2
ACAD
 70
     0
  0
APPID
  2
ACADANNOTATIVE
 70
     0
  0
APPID
  2
REVIT
 70
     0
  0
APPID
  2
ACAD_NAV_VCDISPLAY
 70
     0
  0
APPID
  2
ACAD_MLEADERVER
 70
     0
  0
ENDTAB
  0
TABLE
  2
DIMSTYLE
 70
     3
  0
DIMSTYLE
  2
STANDARD
 70
     0
  3

  4

  5

  6

  7

 40
1.0
 41
0.18
 42
0.0625
 43
0.38
 44
0.18
 45
0.0
 46
0.0
 47
0.0
 48
0.0
140
0.18
141
0.09
142
0.0
143
25.399999999999999
144
1.0
145
0.0
146
1.0
147
0.09
 71
     0
 72
     0
 73
     1
 74
     1
 75
     0
 76
     0
 77
     0
 78
     0
170
     0
171
     2
172
     0
173
     0
174
     0
175
     0
176
     0
177
     0
178
     0
  0
DIMSTYLE
  2
LINEAR
 70
     0
  3
<>
  4

  5

  6
OBLIQUE
  7
OBLIQUE
 40
304.80000000000001
 41
0.0065616797900262
 42
0.0065616797900262
 43
0.38
 44
0.0065616797900262
 45
0.01
 46
0.0
 47
0.0
 48
0.0
140
3.0
141
0.09
142
0.0
143
25.399999999999999
144
1.0
145
1.0
146
1.0
147
0.0065616797900262
 71
     0
 72
     0
 73
     0
 74
     0
 75
     0
 76
     0
 77
     1
 78
     0
170
     0
171
     2
172
     1
173
     1
174
     1
175
     0
176
     0
177
     0
178
     0
  0
ENDTAB
  0
ENDSEC
  0
SECTION
  2
BLOCKS
  0
BLOCK
  8
0
  2
$MODEL_SPACE
 70
     0
 10
0.0
 20
0.0
 30
0.0
  3
$MODEL_SPACE
  1

  0
ENDBLK
  5
72
  8
0
  0
BLOCK
 67
     1
  8
0
  2
$PAPER_SPACE
 70
     0
 10
0.0
 20
0.0
 30
0.0
  3
$PAPER_SPACE
  1

  0
ENDBLK
  5
76
 67
     1
  8
0
  0
BLOCK
  8
0
  2
_OBLIQUE
 70
     0
 10
0.0
 20
0.0
 30
0.0
  3
_OBLIQUE
  1

  0
LINE
  5
A4
  8
0
  6
BYBLOCK
 62
     0
 10
-0.5
 20
-0.5
 30
0.0
 11
0.5
 21
0.5
 31
0.0
  0
ENDBLK
  5
A6
  8
0
  0
BLOCK
  8
0
  2
DIMBLOCK1-REF__LEVEL
 70
     0
 10
0.0
 20
0.0
 30
0.0
  3
DIMBLOCK1-REF__LEVEL
  1

  0
LINE
  5
13E
  8
0
 62
     0
 10
31.999999999999812
 20
-0.0000000000001105
 30
0.0
 11
46.342027243354707
 21
-0.0000000000001146
 31
0.0
  0
LINE
  5
13F
  8
0
 62
     0
 10
31.99999999999978
 20
-12.00000000000011
 30
0.0
 11
46.342027243354707
 21
-12.00000000000011
 31
0.0
  0
LINE
  5
140
  8
0
 62
     0
 10
44.342027243354707
 20
-0.000000000000114
 30
0.0
 11
44.342027243354707
 21
1.9999999999998861
 31
0.0
  0
LINE
  5
141
  8
0
 62
     0
 10
44.342027243354707
 20
-12.00000000000011
 30
0.0
 11
44.342027243354707
 21
-14.00000000000011
 31
0.0
  0
LINE
  5
142
  8
0
 62
     0
 10
44.342027243354707
 20
-0.000000000000114
 30
0.0
 11
44.342027243354707
 21
-12.00000000000011
 31
0.0
  0
INSERT
  5
143
  8
0
 62
     0
  2
_OBLIQUE
 10
44.342027243354707
 20
-0.000000000000114
 30
0.0
 41
2.0
 42
2.0
 43
2.0
 50
270.0
  0
INSERT
  5
144
  8
0
 62
     0
  2
_OBLIQUE
 10
44.342027243354707
 20
-12.00000000000011
 30
0.0
 41
2.0
 42
2.0
 43
2.0
 50
90.0
  0
INSERT
  5
145
  8
0
  2
*U9
 10
0.0
 20
0.0
 30
0.0
  0
POINT
  5
146
  8
DEFPOINTS
 62
     0
 10
29.999999999999801
 20
-0.00000000000011
 30
0.0
  0
POINT
  5
147
  8
DEFPOINTS
 62
     0
 10
29.99999999999979
 20
-12.00000000000011
 30
0.0
  0
POINT
  5
148
  8
DEFPOINTS
 62
     0
 10
44.342027243354707
 20
-12.00000000000011
 30
0.0
  0
ENDBLK
  5
A1
  8
0
  0
BLOCK
  8
0
  2
DIMBLOCK2-REF__LEVEL
 70
     0
 10
0.0
 20
0.0
 30
0.0
  3
DIMBLOCK2-REF__LEVEL
  1

  0
LINE
  5
135
  8
0
 62
     0
 10
-0.176914536240016
 20
-31.732050807568971
 30
0.0
 11
5.6077030210215009
 21
-41.751302319100901
 31
0.0
  0
LINE
  5
136
  8
0
 62
     0
 10
30.99999999999978
 20
-13.73205080756898
 30
0.0
 11
36.784617557261299
 21
-23.751302319100919
 31
0.0
  0
LINE
  5
137
  8
0
 62
     0
 10
4.6077030210215009
 20
-40.019251511532012
 30
0.0
 11
35.784617557261299
 21
-22.01925151153204
 31
0.0
  0
INSERT
  5
138
  8
0
 62
     0
  2
_OBLIQUE
 10
4.6077030210215009
 20
-40.019251511532012
 30
0.0
 41
2.0
 42
2.0
 43
2.0
 50
210.0
  0
INSERT
  5
139
  8
0
 62
     0
  2
_OBLIQUE
 10
35.784617557261299
 20
-22.01925151153204
 30
0.0
 41
2.0
 42
2.0
 43
2.0
 50
29.999999999999961
  0
INSERT
  5
13A
  8
0
  2
*U8
 10
0.0
 20
0.0
 30
0.0
  0
POINT
  5
13B
  8
DEFPOINTS
 62
     0
 10
-1.176914536240014
 20
-30.000000000000089
 30
0.0
  0
POINT
  5
13C
  8
DEFPOINTS
 62
     0
 10
29.99999999999978
 20
-12.00000000000011
 30
0.0
  0
POINT
  5
13D
  8
DEFPOINTS
 62
     0
 10
35.784617557261299
 20
-22.01925151153204
 30
0.0
  0
ENDBLK
  5
C4
  8
0
  0
BLOCK
  8
0
  2
DIMBLOCK3-REF__LEVEL
 70
     0
 10
0.0
 20
0.0
 30
0.0
  3
DIMBLOCK3-REF__LEVEL
  1

  0
LINE
  5
12C
  8
0
 62
     0
 10
-26.33960988396284
 20
-13.542820325533119
 30
0.0
 11
-32.881402416132843
 21
-22.224072229464308
 31
0.0
  0
LINE
  5
12D
  8
0
 62
     0
 10
-2.3805445825441161
 20
-31.597271020094681
 30
0.0
 11
-8.9223371147141197
 21
-40.278522924025857
 31
0.0
  0
LINE
  5
12E
  8
0
 62
     0
 10
-31.677772369828741
 20
-20.626801209369731
 30
0.0
 11
-7.7187070684100174
 21
-38.681251903931283
 31
0.0
  0
INSERT
  5
12F
  8
0
 62
     0
  2
_OBLIQUE
 10
-31.677772369828741
 20
-20.626801209369731
 30
0.0
 41
2.0
 42
2.0
 43
2.0
 50
142.99999999999969
  0
INSERT
  5
130
  8
0
 62
     0
  2
_OBLIQUE
 10
-7.7187070684100174
 20
-38.681251903931283
 30
0.0
 41
2.0
 42
2.0
 43
2.0
 50
322.99999999999977
  0
INSERT
  5
131
  8
0
  2
*U7
 10
0.0
 20
0.0
 30
0.0
  0
POINT
  5
132
  8
DEFPOINTS
 62
     0
 10
-25.135979837658741
 20
-11.94554930543854
 30
0.0
  0
POINT
  5
133
  8
DEFPOINTS
 62
     0
 10
-1.176914536240014
 20
-30.000000000000089
 30
0.0
  0
POINT
  5
134
  8
DEFPOINTS
 62
     0
 10
-7.7187070684100174
 20
-38.681251903931283
 30
0.0
  0
ENDBLK
  5
DE
  8
0
  0
BLOCK
  8
0
  2
DIMBLOCK4-REF__LEVEL
 70
     0
 10
0.0
 20
0.0
 30
0.0
  3
DIMBLOCK4-REF__LEVEL
  1

  0
LINE
  5
123
  8
0
 62
     0
 10
-0.0000000000000168
 20
1.999999999999988
 30
0.0
 11
-0.0000000000000162
 21
11.393726930342931
 31
0.0
  0
LINE
  5
124
  8
0
 62
     0
 10
29.999999999999801
 20
1.9999999999998901
 30
0.0
 11
29.999999999999801
 21
11.393726930342931
 31
0.0
  0
LINE
  5
125
  8
0
 62
     0
 10
-0.0000000000000163
 20
9.3937269303429307
 30
0.0
 11
29.999999999999801
 21
9.3937269303429307
 31
0.0
  0
INSERT
  5
126
  8
0
 62
     0
  2
_OBLIQUE
 10
-0.0000000000000163
 20
9.3937269303429307
 30
0.0
 41
2.0
 42
2.0
 43
2.0
 50
180.0
  0
INSERT
  5
127
  8
0
 62
     0
  2
_OBLIQUE
 10
29.999999999999801
 20
9.3937269303429307
 30
0.0
 41
2.0
 42
2.0
 43
2.0
  0
INSERT
  5
128
  8
0
  2
*U6
 10
0.0
 20
0.0
 30
0.0
  0
POINT
  5
129
  8
DEFPOINTS
 62
     0
 10
-0.0000000000000169
 20
-0.0000000000000116
 30
0.0
  0
POINT
  5
12A
  8
DEFPOINTS
 62
     0
 10
29.999999999999801
 20
-0.00000000000011
 30
0.0
  0
POINT
  5
12B
  8
DEFPOINTS
 62
     0
 10
29.999999999999801
 20
9.3937269303429307
 30
0.0
  0
ENDBLK
  5
F8
  8
0
  0
BLOCK
  8
0
  2
*U6
 70
     1
 10
0.0
 20
0.0
 30
0.0
  3
*U6
  1

  0
TEXT
  5
1F6
  8
0
 62
     0
 10
9.8545662767233893
 20
11.452094846624959
 30
0.0
 40
2.9505988023952101
  1
30.00
  7
ARIAL
  0
ENDBLK
  5
1F8
  8
0
  0
BLOCK
  8
0
  2
*U7
 70
     1
 10
0.0
 20
0.0
 30
0.0
  3
*U7
  1

  0
TEXT
  5
1FA
  8
0
 62
     0
 10
-22.568809069930118
 20
-24.91354153066462
 30
0.0
 40
2.9505988023952101
  1
30.00
 50
322.99999999999977
  7
ARIAL
  0
ENDBLK
  5
1FC
  8
0
  0
BLOCK
  8
0
  2
*U8
 70
     1
 10
0.0
 20
0.0
 30
0.0
  3
*U8
  1

  0
TEXT
  5
1FE
  8
0
 62
     0
 10
14.710900013153781
 20
-31.809369467335198
 30
0.0
 40
2.9505988023952101
  1
36.00
 50
29.999999999999961
  7
ARIAL
  0
ENDBLK
  5
200
  8
0
  0
BLOCK
  8
0
  2
*U9
 70
     1
 10
0.0
 20
0.0
 30
0.0
  3
*U9
  1

  0
TEXT
  5
202
  8
0
 62
     0
 10
42.28567201384103
 20
-11.28330276690831
 30
0.0
 40
2.9505988023952101
  1
12.00
 50
90.0
  7
ARIAL
  0
ENDBLK
  5
204
  8
0
  0
ENDSEC
  0
SECTION
  2
ENTITIES
  0
LINE
  5
89
  8
0
 10
-0.5000000000000168
 20
97.999999999999986
 30
0.0
 11
-0.5000000000000168
 21
-1.0000000000000091
 31
0.0
1001
REVIT
1002
{
1070
     1
1000
242756
1002
}
1002
{
1070
     2
1000
-2002000
1002
}
1002
{
1070
     3
1000
211461
1002
}
  0
LINE
  5
8A
  8
0
 10
-0.5000000000000165
 20
-1.00000000000001
 30
0.0
 11
29.499999999999812
 21
-1.000000000000109
 31
0.0
1001
REVIT
1002
{
1070
     1
1000
242757
1002
}
1002
{
1070
     2
1000
-2002000
1002
}
1002
{
1070
     3
1000
211461
1002
}
  0
LINE
  5
8B
  8
0
 10
29.499999999999812
 20
-1.000000000000109
 30
0.0
 11
29.49999999999979
 21
-11.000000000000201
 31
0.0
1001
REVIT
1002
{
1070
     1
1000
242758
1002
}
1002
{
1070
     2
1000
-2002000
1002
}
1002
{
1070
     3
1000
211461
1002
}
  0
LINE
  5
8C
  8
0
 10
-1.6769145362400451
 20
-29.00000000000021
 30
0.0
 11
-21.64280228742232
 21
-13.95462442119892
 31
0.0
1001
REVIT
1002
{
1070
     1
1000
242760
1002
}
1002
{
1070
     2
1000
-2002000
1002
}
1002
{
1070
     3
1000
211461
1002
}
  0
LINE
  5
8D
  8
0
 10
29.49999999999979
 20
-11.000000000000201
 30
0.0
 11
-1.676914536240047
 21
-29.00000000000021
 31
0.0
1001
REVIT
1002
{
1070
     1
1000
242759
1002
}
1002
{
1070
     2
1000
-2002000
1002
}
1002
{
1070
     3
1000
211461
1002
}
  0
LINE
  5
8E
  8
0
  6
CONTINUOUS
 10
29.999999999999801
 20
-0.00000000000011
 30
0.0
 11
29.99999999999979
 21
-12.00000000000011
 31
0.0
1001
REVIT
1002
{
1070
     1
1000
242761
1002
}
1002
{
1070
     2
1000
-2002000
1002
}
1002
{
1070
     3
1000
206783
1002
}
  0
LINE
  5
8F
  8
0
  6
CONTINUOUS
 10
-0.0000000000000169
 20
-0.0000000000000117
 30
0.0
 11
29.999999999999801
 21
-0.00000000000011
 31
0.0
1001
REVIT
1002
{
1070
     1
1000
242763
1002
}
1002
{
1070
     2
1000
-2002000
1002
}
1002
{
1070
     3
1000
206783
1002
}
  0
LINE
  5
90
  8
0
  6
CONTINUOUS
 10
29.99999999999979
 20
-12.00000000000011
 30
0.0
 11
-1.1769145362400131
 21
-30.000000000000089
 31
0.0
1001
REVIT
1002
{
1070
     1
1000
242764
1002
}
1002
{
1070
     2
1000
-2002000
1002
}
1002
{
1070
     3
1000
206783
1002
}
  0
LINE
  5
91
  8
0
  6
CONTINUOUS
 10
-1.176914536240014
 20
-30.000000000000089
 30
0.0
 11
-25.135979837658731
 21
-11.94554930543854
 31
0.0
1001
REVIT
1002
{
1070
     1
1000
242766
1002
}
1002
{
1070
     2
1000
-2002000
1002
}
1002
{
1070
     3
1000
206783
1002
}
  0
ENDSEC
  0
EOF
