  0
SECTION
  2
HEADER
  9
$ACADVER
  1
AC1009
  9
$INSBASE
 10
0.0
 20
0.0
 30
0.0
  9
$EXTMIN
 10
-19.194364059155738
 20
-117.17778709370209
 30
0.0
  9
$EXTMAX
 10
113.6305973646347
 20
19.84758160838873
 30
0.0
  9
$LIMMIN
 10
0.0
 20
0.0
  9
$LIMMAX
 10
12.0
 20
9.0
  9
$ORTHOMODE
 70
     0
  9
$REGENMODE
 70
     1
  9
$FILLMODE
 70
     1
  9
$QTEXTMODE
 70
     0
  9
$MIRRTEXT
 70
     0
  9
$DRAGMODE
 70
     2
  9
$LTSCALE
 40
1.0
  9
$OSMODE
 70
   127
  9
$ATTMODE
 70
     1
  9
$TEXTSIZE
 40
0.2
  9
$TRACEWID
 40
0.05
  9
$TEXTSTYLE
  7
STANDARD
  9
$CLAYER
  8
0
  9
$CELTYPE
  6
BYLAYER
  9
$CECOLOR
 62
   256
  9
$DIMSCALE
 40
1.0
  9
$DIMASZ
 40
0.18
  9
$DIMEXO
 40
0.0625
  9
$DIMDLI
 40
0.38
  9
$DIMRND
 40
0.0
  9
$DIMDLE
 40
0.0
  9
$DIMEXE
 40
0.18
  9
$DIMTP
 40
0.0
  9
$DIMTM
 40
0.0
  9
$DIMTXT
 40
0.18
  9
$DIMCEN
 40
0.09
  9
$DIMTSZ
 40
0.0
  9
$DIMTOL
 70
     0
  9
$DIMLIM
 70
     0
  9
$DIMTIH
 70
     1
  9
$DIMTOH
 70
     1
  9
$DIMSE1
 70
     0
  9
$DIMSE2
 70
     0
  9
$DIMTAD
 70
     0
  9
$DIMZIN
 70
     0
  9
$DIMBLK
  1

  9
$DIMASO
 70
     1
  9
$DIMSHO
 70
     1
  9
$DIMPOST
  1

  9
$DIMAPOST
  1

  9
$DIMALT
 70
     0
  9
$DIMALTD
 70
     2
  9
$DIMALTF
 40
25.399999999999999
  9
$DIMLFAC
 40
1.0
  9
$DIMTOFL
 70
     0
  9
$DIMTVP
 40
0.0
  9
$DIMTIX
 70
     0
  9
$DIMSOXD
 70
     0
  9
$DIMSAH
 70
     0
  9
$DIMBLK1
  1

  9
$DIMBLK2
  1

  9
$DIMSTYLE
  2
STANDARD
  9
$DIMCLRD
 70
     0
  9
$DIMCLRE
 70
     0
  9
$DIMCLRT
 70
     0
  9
$DIMTFAC
 40
1.0
  9
$DIMGAP
 40
0.09
  9
$LUNITS
 70
     2
  9
$LUPREC
 70
     4
  9
$SKETCHINC
 40
0.1
  9
$FILLETRAD
 40
0.0
  9
$AUNITS
 70
     0
  9
$AUPREC
 70
     0
  9
$MENU
  1
.
  9
$ELEVATION
 40
0.0
  9
$PELEVATION
 40
0.0
  9
$THICKNESS
 40
0.0
  9
$LIMCHECK
 70
     0
  9
$BLIPMODE
 70
     0
  9
$CHAMFERA
 40
0.0
  9
$CHAMFERB
 40
0.0
  9
$SKPOLY
 70
     0
  9
$TDCREATE
 40
2457375.5615422679
  9
$TDUPDATE
 40
2457378.9897418749
  9
$TDINDWG
 40
0.0001044329
  9
$TDUSRTIMER
 40
0.0001044329
  9
$USRTIMER
 70
     1
  9
$ANGBASE
 50
0.0
  9
$ANGDIR
 70
     0
  9
$PDMODE
 70
     0
  9
$PDSIZE
 40
0.0
  9
$PLINEWID
 40
0.0
  9
$COORDS
 70
     2
  9
$SPLFRAME
 70
     0
  9
$SPLINETYPE
 70
     6
  9
$SPLINESEGS
 70
     8
  9
$ATTDIA
 70
     0
  9
$ATTREQ
 70
     0
  9
$HANDLING
 70
     1
  9
$HANDSEED
  5
2AB
  9
$SURFTAB1
 70
     6
  9
$SURFTAB2
 70
     6
  9
$SURFTYPE
 70
     6
  9
$SURFU
 70
     6
  9
$SURFV
 70
     6
  9
$UCSNAME
  2

  9
$UCSORG
 10
0.0
 20
0.0
 30
0.0
  9
$UCSXDIR
 10
1.0
 20
0.0
 30
0.0
  9
$UCSYDIR
 10
0.0
 20
1.0
 30
0.0
  9
$PUCSNAME
  2

  9
$PUCSORG
 10
0.0
 20
0.0
 30
0.0
  9
$PUCSXDIR
 10
1.0
 20
0.0
 30
0.0
  9
$PUCSYDIR
 10
0.0
 20
1.0
 30
0.0
  9
$USERI1
 70
     0
  9
$USERI2
 70
     0
  9
$USERI3
 70
     0
  9
$USERI4
 70
     0
  9
$USERI5
 70
     0
  9
$USERR1
 40
0.0
  9
$USERR2
 40
0.0
  9
$USERR3
 40
0.0
  9
$USERR4
 40
0.0
  9
$USERR5
 40
0.0
  9
$WORLDVIEW
 70
     1
  9
$SHADEDGE
 70
     3
  9
$SHADEDIF
 70
    70
  9
$TILEMODE
 70
     1
  9
$MAXACTVP
 70
    64
  9
$PLIMCHECK
 70
     0
  9
$PEXTMIN
 10
0.0
 20
0.0
 30
0.0
  9
$PEXTMAX
 10
0.0
 20
0.0
 30
0.0
  9
$PLIMMIN
 10
0.0
 20
0.0
  9
$PLIMMAX
 10
12.0
 20
9.0
  9
$UNITMODE
 70
     0
  9
$VISRETAIN
 70
     1
  9
$PLINEGEN
 70
     0
  9
$PSLTSCALE
 70
     1
  0
ENDSEC
  0
SECTION
  2
TABLES
  0
TABLE
  2
VPORT
 70
     1
  0
VPORT
  2
*ACTIVE
 70
     0
 10
0.0
 20
0.0
 11
1.0
 21
1.0
 12
131.8145830832313
 22
-48.555563975715799
 13
0.0
 23
0.0
 14
1.0
 24
1.0
 15
0.0
 25
0.0
 16
0.0
 26
0.0
 36
1.0
 17
0.0
 27
0.0
 37
0.0
 40
112.2398359502628
 41
1.7244755244755241
 42
50.0
 43
0.0
 44
0.0
 50
0.0
 51
0.0
 71
     0
 72
  1000
 73
     1
 74
     3
 75
     0
 76
     0
 77
     0
 78
     0
  0
ENDTAB
  0
TABLE
  2
LTYPE
 70
     1
  0
LTYPE
  2
CONTINUOUS
 70
     0
  3
Solid line
 72
    65
 73
     0
 40
0.0
  0
ENDTAB
  0
TABLE
  2
LAYER
 70
     5
  0
LAYER
  2
0
 70
     0
 62
     7
  6
CONTINUOUS
  0
LAYER
  2
DEFPOINTS
 70
     0
 62
     7
  6
CONTINUOUS
  0
ENDTAB
  0
TABLE
  2
STYLE
 70
     3
  0
STYLE
  2
STANDARD
 70
     0
 40
0.0
 41
1.0
 50
0.0
 71
     0
 42
0.2
  3
txt
  4

  0
STYLE
  2
ARIAL
 70
     0
 40
2.9505988023952101
 41
1.0
 50
0.0
 71
     0
 42
0.2
  3
txt
  4

  0
ENDTAB
  0
TABLE
  2
VIEW
 70
     0
  0
ENDTAB
  0
TABLE
  2
UCS
 70
     0
  0
ENDTAB
  0
TABLE
  2
APPID
 70
     5
  0
APPID
  2
ACAD
 70
     0
  0
APPID
  2
ACADANNOTATIVE
 70
     0
  0
APPID
  2
REVIT
 70
     0
  0
APPID
  2
ACAD_NAV_VCDISPLAY
 70
     0
  0
APPID
  2
ACAD_MLEADERVER
 70
     0
  0
ENDTAB
  0
TABLE
  2
DIMSTYLE
 70
     3
  0
DIMSTYLE
  2
STANDARD
 70
     0
  3

  4

  5

  6

  7

 40
1.0
 41
0.18
 42
0.0625
 43
0.38
 44
0.18
 45
0.0
 46
0.0
 47
0.0
 48
0.0
140
0.18
141
0.09
142
0.0
143
25.399999999999999
144
1.0
145
0.0
146
1.0
147
0.09
 71
     0
 72
     0
 73
     1
 74
     1
 75
     0
 76
     0
 77
     0
 78
     0
170
     0
171
     2
172
     0
173
     0
174
     0
175
     0
176
     0
177
     0
178
     0
  0
DIMSTYLE
  2
LINEAR
 70
     0
  3
<>
  4

  5

  6
OBLIQUE
  7
OBLIQUE
 40
304.80000000000001
 41
0.0065616797900262
 42
0.0065616797900262
 43
0.38
 44
0.0065616797900262
 45
0.01
 46
0.0
 47
0.0
 48
0.0
140
3.0
141
0.09
142
0.0
143
25.399999999999999
144
1.0
145
1.0
146
1.0
147
0.0065616797900262
 71
     0
 72
     0
 73
     0
 74
     0
 75
     0
 76
     0
 77
     1
 78
     0
170
     0
171
     2
172
     1
173
     1
174
     1
175
     0
176
     0
177
     0
178
     0
  0
ENDTAB
  0
ENDSEC
  0
SECTION
  2
BLOCKS
  0
BLOCK
  8
0
  2
$MODEL_SPACE
 70
     0
 10
0.0
 20
0.0
 30
0.0
  3
$MODEL_SPACE
  1

  0
ENDBLK
  5
72
  8
0
  0
BLOCK
 67
     1
  8
0
  2
$PAPER_SPACE
 70
     0
 10
0.0
 20
0.0
 30
0.0
  3
$PAPER_SPACE
  1

  0
ENDBLK
  5
76
 67
     1
  8
0
  0
BLOCK
  8
0
  2
_OBLIQUE
 70
     0
 10
0.0
 20
0.0
 30
0.0
  3
_OBLIQUE
  1

  0
LINE
  5
A2
  8
0
  6
BYBLOCK
 62
     0
 10
-0.5
 20
-0.5
 30
0.0
 11
0.5
 21
0.5
 31
0.0
  0
ENDBLK
  5
A4
  8
0
  0
BLOCK
  8
0
  2
DIMBLOCK1-REF__LEVEL
 70
     0
 10
0.0
 20
0.0
 30
0.0
  3
DIMBLOCK1-REF__LEVEL
  1

  0
LINE
  5
1D4
  8
0
 62
     0
 10
112.2163838022616
 20
-2.9999999999999991
 30
0.0
 11
113.6305973646347
 21
-3.0
 31
0.0
  0
LINE
  5
1D5
  8
0
 62
     0
 10
112.2163838022617
 20
-0.0000000000000006
 30
0.0
 11
113.6305973646347
 21
-0.000000000000001
 31
0.0
  0
LINE
  5
1D6
  8
0
 62
     0
 10
111.6305973646347
 20
-2.9999999999999991
 30
0.0
 11
111.6305973646347
 21
-5.0
 31
0.0
  0
LINE
  5
1D7
  8
0
 62
     0
 10
111.6305973646347
 20
-0.0000000000000004
 30
0.0
 11
111.6305973646347
 21
2.0
 31
0.0
  0
LINE
  5
1D8
  8
0
 62
     0
 10
111.6305973646347
 20
-2.9999999999999991
 30
0.0
 11
111.6305973646347
 21
-0.0000000000000004
 31
0.0
  0
INSERT
  5
1D9
  8
0
 62
     0
  2
_OBLIQUE
 10
111.6305973646347
 20
-2.9999999999999991
 30
0.0
 41
2.0
 42
2.0
 43
2.0
 50
90.0
  0
INSERT
  5
1DA
  8
0
 62
     0
  2
_OBLIQUE
 10
111.6305973646347
 20
-0.0000000000000004
 30
0.0
 41
2.0
 42
2.0
 43
2.0
 50
270.0
  0
INSERT
  5
1DB
  8
0
  2
*U17
 10
0.0
 20
0.0
 30
0.0
  0
POINT
  5
1DC
  8
DEFPOINTS
 62
     0
 10
110.2163838022616
 20
-2.9999999999999991
 30
0.0
  0
POINT
  5
1DD
  8
DEFPOINTS
 62
     0
 10
110.2163838022617
 20
0.0
 30
0.0
  0
POINT
  5
1DE
  8
DEFPOINTS
 62
     0
 10
111.6305973646347
 20
-0.0000000000000004
 30
0.0
  0
ENDBLK
  5
9F
  8
0
  0
BLOCK
  8
0
  2
DIMBLOCK2-REF__LEVEL
 70
     0
 10
0.0
 20
0.0
 30
0.0
  3
DIMBLOCK2-REF__LEVEL
  1

  0
LINE
  5
1C9
  8
0
 62
     0
 10
-0.0000000000000001
 20
-115.763573531329
 30
0.0
 11
-0.0000000000000002
 21
-117.17778709370209
 31
0.0
  0
LINE
  5
1CA
  8
0
 62
     0
 10
3.0
 20
-115.763573531329
 30
0.0
 11
3.0
 21
-117.17778709370209
 31
0.0
  0
LINE
  5
1CB
  8
0
 62
     0
 10
-0.0000000000000001
 20
-115.17778709370209
 30
0.0
 11
-2.0
 21
-115.17778709370209
 31
0.0
  0
LINE
  5
1CC
  8
0
 62
     0
 10
3.0
 20
-115.17778709370209
 30
0.0
 11
5.0
 21
-115.17778709370209
 31
0.0
  0
LINE
  5
1CD
  8
0
 62
     0
 10
-0.0000000000000001
 20
-115.17778709370209
 30
0.0
 11
3.0
 21
-115.17778709370209
 31
0.0
  0
INSERT
  5
1CE
  8
0
 62
     0
  2
_OBLIQUE
 10
-0.0000000000000001
 20
-115.17778709370209
 30
0.0
 41
2.0
 42
2.0
 43
2.0
  0
INSERT
  5
1CF
  8
0
 62
     0
  2
_OBLIQUE
 10
3.0
 20
-115.17778709370209
 30
0.0
 41
2.0
 42
2.0
 43
2.0
 50
180.0
  0
INSERT
  5
1D0
  8
0
  2
*U16
 10
0.0
 20
0.0
 30
0.0
  0
POINT
  5
1D1
  8
DEFPOINTS
 62
     0
 10
0.0
 20
-113.763573531329
 30
0.0
  0
POINT
  5
1D2
  8
DEFPOINTS
 62
     0
 10
3.0
 20
-113.763573531329
 30
0.0
  0
POINT
  5
1D3
  8
DEFPOINTS
 62
     0
 10
3.0
 20
-115.17778709370209
 30
0.0
  0
ENDBLK
  5
C2
  8
0
  0
BLOCK
  8
0
  2
DIMBLOCK3-REF__LEVEL
 70
     0
 10
0.0
 20
0.0
 30
0.0
  3
DIMBLOCK3-REF__LEVEL
  1

  0
LINE
  5
1BE
  8
0
 62
     0
 10
111.0448109270076
 20
-55.00000000000076
 30
0.0
 11
109.6305973646345
 21
-55.00000000000076
 31
0.0
  0
LINE
  5
1BF
  8
0
 62
     0
 10
111.0448109270076
 20
-65.000000000000767
 30
0.0
 11
109.6305973646345
 21
-65.000000000000767
 31
0.0
  0
LINE
  5
1C0
  8
0
 62
     0
 10
111.6305973646345
 20
-55.00000000000076
 30
0.0
 11
111.6305973646345
 21
-53.00000000000076
 31
0.0
  0
LINE
  5
1C1
  8
0
 62
     0
 10
111.6305973646345
 20
-65.000000000000767
 30
0.0
 11
111.6305973646345
 21
-67.000000000000767
 31
0.0
  0
LINE
  5
1C2
  8
0
 62
     0
 10
111.6305973646345
 20
-55.00000000000076
 30
0.0
 11
111.6305973646345
 21
-65.000000000000767
 31
0.0
  0
INSERT
  5
1C3
  8
0
 62
     0
  2
_OBLIQUE
 10
111.6305973646345
 20
-55.00000000000076
 30
0.0
 41
2.0
 42
2.0
 43
2.0
 50
270.0
  0
INSERT
  5
1C4
  8
0
 62
     0
  2
_OBLIQUE
 10
111.6305973646345
 20
-65.000000000000767
 30
0.0
 41
2.0
 42
2.0
 43
2.0
 50
90.0
  0
INSERT
  5
1C5
  8
0
  2
*U15
 10
0.0
 20
0.0
 30
0.0
  0
POINT
  5
1C6
  8
DEFPOINTS
 62
     0
 10
113.0448109270076
 20
-55.000000000000767
 30
0.0
  0
POINT
  5
1C7
  8
DEFPOINTS
 62
     0
 10
113.0448109270076
 20
-65.000000000000767
 30
0.0
  0
POINT
  5
1C8
  8
DEFPOINTS
 62
     0
 10
111.6305973646345
 20
-65.000000000000767
 30
0.0
  0
ENDBLK
  5
DE
  8
0
  0
BLOCK
  8
0
  2
DIMBLOCK4-REF__LEVEL
 70
     0
 10
0.0
 20
0.0
 30
0.0
  3
DIMBLOCK4-REF__LEVEL
  1

  0
LINE
  5
1B3
  8
0
 62
     0
 10
54.999999999999602
 20
-115.763573531329
 30
0.0
 11
54.999999999999602
 21
-117.17778709370209
 31
0.0
  0
LINE
  5
1B4
  8
0
 62
     0
 10
64.999999999999616
 20
-115.763573531329
 30
0.0
 11
64.999999999999616
 21
-117.17778709370209
 31
0.0
  0
LINE
  5
1B5
  8
0
 62
     0
 10
54.999999999999602
 20
-115.17778709370209
 30
0.0
 11
52.999999999999609
 21
-115.17778709370209
 31
0.0
  0
LINE
  5
1B6
  8
0
 62
     0
 10
64.999999999999616
 20
-115.17778709370209
 30
0.0
 11
66.999999999999616
 21
-115.17778709370209
 31
0.0
  0
LINE
  5
1B7
  8
0
 62
     0
 10
54.999999999999602
 20
-115.17778709370209
 30
0.0
 11
64.999999999999616
 21
-115.17778709370209
 31
0.0
  0
INSERT
  5
1B8
  8
0
 62
     0
  2
_OBLIQUE
 10
54.999999999999602
 20
-115.17778709370209
 30
0.0
 41
2.0
 42
2.0
 43
2.0
  0
INSERT
  5
1B9
  8
0
 62
     0
  2
_OBLIQUE
 10
64.999999999999616
 20
-115.17778709370209
 30
0.0
 41
2.0
 42
2.0
 43
2.0
 50
180.0
  0
INSERT
  5
1BA
  8
0
  2
*U14
 10
0.0
 20
0.0
 30
0.0
  0
POINT
  5
1BB
  8
DEFPOINTS
 62
     0
 10
54.999999999999602
 20
-113.763573531329
 30
0.0
  0
POINT
  5
1BC
  8
DEFPOINTS
 62
     0
 10
64.999999999999616
 20
-113.763573531329
 30
0.0
  0
POINT
  5
1BD
  8
DEFPOINTS
 62
     0
 10
64.999999999999616
 20
-115.17778709370209
 30
0.0
  0
ENDBLK
  5
FA
  8
0
  0
BLOCK
  8
0
  2
DIMBLOCK5-REF__LEVEL
 70
     0
 10
0.0
 20
0.0
 30
0.0
  3
DIMBLOCK5-REF__LEVEL
  1

  0
LINE
  5
1AA
  8
0
 62
     0
 10
96.380982561384982
 20
-15.000000000000711
 30
0.0
 11
97.795196123758103
 21
-15.000000000000711
 31
0.0
  0
LINE
  5
1AB
  8
0
 62
     0
 10
96.380982561385025
 20
-0.0000000000000006
 30
0.0
 11
97.795196123758103
 21
-0.000000000000001
 31
0.0
  0
LINE
  5
1AC
  8
0
 62
     0
 10
95.795196123758089
 20
-15.000000000000711
 30
0.0
 11
95.795196123758089
 21
-0.0000000000000004
 31
0.0
  0
INSERT
  5
1AD
  8
0
 62
     0
  2
_OBLIQUE
 10
95.795196123758089
 20
-15.000000000000711
 30
0.0
 41
2.0
 42
2.0
 43
2.0
 50
270.0
  0
INSERT
  5
1AE
  8
0
 62
     0
  2
_OBLIQUE
 10
95.795196123758089
 20
-0.0000000000000004
 30
0.0
 41
2.0
 42
2.0
 43
2.0
 50
90.0
  0
INSERT
  5
1AF
  8
0
  2
*U13
 10
0.0
 20
0.0
 30
0.0
  0
POINT
  5
1B0
  8
DEFPOINTS
 62
     0
 10
94.380982561384982
 20
-15.000000000000711
 30
0.0
  0
POINT
  5
1B1
  8
DEFPOINTS
 62
     0
 10
94.380982561385025
 20
0.0
 30
0.0
  0
POINT
  5
1B2
  8
DEFPOINTS
 62
     0
 10
95.795196123758089
 20
-0.0000000000000004
 30
0.0
  0
ENDBLK
  5
116
  8
0
  0
BLOCK
  8
0
  2
DIMBLOCK6-REF__LEVEL
 70
     0
 10
0.0
 20
0.0
 30
0.0
  3
DIMBLOCK6-REF__LEVEL
  1

  0
LINE
  5
1A1
  8
0
 62
     0
 10
-0.0000000000000001
 20
-99.817618439981345
 30
0.0
 11
-0.0000000000000002
 21
-101.23183200235439
 31
0.0
  0
LINE
  5
1A2
  8
0
 62
     0
 10
14.999999999999631
 20
-99.817618439981345
 30
0.0
 11
14.999999999999631
 21
-101.23183200235439
 31
0.0
  0
LINE
  5
1A3
  8
0
 62
     0
 10
-0.0000000000000001
 20
-99.231832002354423
 30
0.0
 11
14.999999999999631
 21
-99.231832002354423
 31
0.0
  0
INSERT
  5
1A4
  8
0
 62
     0
  2
_OBLIQUE
 10
-0.0000000000000001
 20
-99.231832002354423
 30
0.0
 41
2.0
 42
2.0
 43
2.0
 50
180.0
  0
INSERT
  5
1A5
  8
0
 62
     0
  2
_OBLIQUE
 10
14.999999999999631
 20
-99.231832002354423
 30
0.0
 41
2.0
 42
2.0
 43
2.0
  0
INSERT
  5
1A6
  8
0
  2
*U12
 10
0.0
 20
0.0
 30
0.0
  0
POINT
  5
1A7
  8
DEFPOINTS
 62
     0
 10
0.0
 20
-97.817618439981331
 30
0.0
  0
POINT
  5
1A8
  8
DEFPOINTS
 62
     0
 10
14.999999999999631
 20
-97.817618439981331
 30
0.0
  0
POINT
  5
1A9
  8
DEFPOINTS
 62
     0
 10
14.999999999999631
 20
-99.231832002354423
 30
0.0
  0
ENDBLK
  5
130
  8
0
  0
BLOCK
  8
0
  2
DIMBLOCK7-REF__LEVEL
 70
     0
 10
0.0
 20
0.0
 30
0.0
  3
DIMBLOCK7-REF__LEVEL
  1

  0
LINE
  5
198
  8
0
 62
     0
 10
14.999999999999821
 20
12.653350825325351
 30
0.0
 11
14.999999999999821
 21
11.2391372629522
 31
0.0
  0
LINE
  5
199
  8
0
 62
     0
 10
64.999999999999829
 20
12.653350825325269
 30
0.0
 11
64.999999999999829
 21
11.2391372629522
 31
0.0
  0
LINE
  5
19A
  8
0
 62
     0
 10
14.999999999999821
 20
13.2391372629522
 30
0.0
 11
64.999999999999829
 21
13.2391372629522
 31
0.0
  0
INSERT
  5
19B
  8
0
 62
     0
  2
_OBLIQUE
 10
14.999999999999821
 20
13.2391372629522
 30
0.0
 41
2.0
 42
2.0
 43
2.0
 50
180.0
  0
INSERT
  5
19C
  8
0
 62
     0
  2
_OBLIQUE
 10
64.999999999999829
 20
13.2391372629522
 30
0.0
 41
2.0
 42
2.0
 43
2.0
  0
INSERT
  5
19D
  8
0
  2
*U11
 10
0.0
 20
0.0
 30
0.0
  0
POINT
  5
19E
  8
DEFPOINTS
 62
     0
 10
14.999999999999821
 20
14.653350825325351
 30
0.0
  0
POINT
  5
19F
  8
DEFPOINTS
 62
     0
 10
64.999999999999829
 20
14.653350825325269
 30
0.0
  0
POINT
  5
1A0
  8
DEFPOINTS
 62
     0
 10
64.999999999999829
 20
13.2391372629522
 30
0.0
  0
ENDBLK
  5
14A
  8
0
  0
BLOCK
  8
0
  2
DIMBLOCK8-REF__LEVEL
 70
     0
 10
0.0
 20
0.0
 30
0.0
  3
DIMBLOCK8-REF__LEVEL
  1

  0
LINE
  5
18F
  8
0
 62
     0
 10
-13.171706151346029
 20
-15.000000000000361
 30
0.0
 11
-14.585919713719271
 21
-15.000000000000361
 31
0.0
  0
LINE
  5
190
  8
0
 62
     0
 10
-13.171706151346189
 20
-65.000000000000369
 30
0.0
 11
-14.58591971371929
 21
-65.000000000000369
 31
0.0
  0
LINE
  5
191
  8
0
 62
     0
 10
-12.58591971371928
 20
-15.000000000000361
 30
0.0
 11
-12.58591971371928
 21
-65.000000000000369
 31
0.0
  0
INSERT
  5
192
  8
0
 62
     0
  2
_OBLIQUE
 10
-12.58591971371928
 20
-15.000000000000361
 30
0.0
 41
2.0
 42
2.0
 43
2.0
 50
90.0
  0
INSERT
  5
193
  8
0
 62
     0
  2
_OBLIQUE
 10
-12.58591971371928
 20
-65.000000000000369
 30
0.0
 41
2.0
 42
2.0
 43
2.0
 50
270.0
  0
INSERT
  5
194
  8
0
  2
*U10
 10
0.0
 20
0.0
 30
0.0
  0
POINT
  5
195
  8
DEFPOINTS
 62
     0
 10
-11.171706151346029
 20
-15.000000000000369
 30
0.0
  0
POINT
  5
196
  8
DEFPOINTS
 62
     0
 10
-11.171706151346189
 20
-65.000000000000369
 30
0.0
  0
POINT
  5
197
  8
DEFPOINTS
 62
     0
 10
-12.58591971371928
 20
-65.000000000000369
 30
0.0
  0
ENDBLK
  5
164
  8
0
  0
BLOCK
  8
0
  2
*U10
 70
     1
 10
0.0
 20
0.0
 30
0.0
  3
*U10
  1

  0
TEXT
  5
28C
  8
0
 62
     0
 10
-14.642274943232961
 20
-45.14442737989269
 30
0.0
 40
2.9505988023952101
  1
50.00
 50
90.0
  7
ARIAL
  0
ENDBLK
  5
28E
  8
0
  0
BLOCK
  8
0
  2
*U11
 70
     1
 10
0.0
 20
0.0
 30
0.0
  3
*U11
  1

  0
TEXT
  5
290
  8
0
 62
     0
 10
34.855572620107502
 20
15.29549249246589
 30
0.0
 40
2.9505988023952101
  1
50.00
  7
ARIAL
  0
ENDBLK
  5
292
  8
0
  0
BLOCK
  8
0
  2
*U12
 70
     1
 10
0.0
 20
0.0
 30
0.0
  3
*U12
  1

  0
TEXT
  5
294
  8
0
 62
     0
 10
2.216697233091613
 20
-97.175476772840724
 30
0.0
 40
2.9505988023952101
  1
15.00
  7
ARIAL
  0
ENDBLK
  5
296
  8
0
  0
BLOCK
  8
0
  2
*U13
 70
     1
 10
0.0
 20
0.0
 30
0.0
  3
*U13
  1

  0
TEXT
  5
298
  8
0
 62
     0
 10
93.73884089424439
 20
-12.783302766908539
 30
0.0
 40
2.9505988023952101
  1
15.00
 50
90.0
  7
ARIAL
  0
ENDBLK
  5
29A
  8
0
  0
BLOCK
  8
0
  2
*U14
 70
     1
 10
0.0
 20
0.0
 30
0.0
  3
*U14
  1

  0
TEXT
  5
29C
  8
0
 62
     0
 10
54.716697233091409
 20
-113.12143186418839
 30
0.0
 40
2.9505988023952101
  1
10.00
  7
ARIAL
  0
ENDBLK
  5
29E
  8
0
  0
BLOCK
  8
0
  2
*U15
 70
     1
 10
0.0
 20
0.0
 30
0.0
  3
*U15
  1

  0
TEXT
  5
2A0
  8
0
 62
     0
 10
109.5742421351208
 20
-65.283302766908946
 30
0.0
 40
2.9505988023952101
  1
10.00
 50
90.0
  7
ARIAL
  0
ENDBLK
  5
2A2
  8
0
  0
BLOCK
  8
0
  2
*U16
 70
     1
 10
0.0
 20
0.0
 30
0.0
  3
*U16
  1

  0
TEXT
  5
2A4
  8
0
 62
     0
 10
-2.4992086087034662
 20
-113.11941917742
 30
0.0
 40
2.9505988023952101
  1
3.00
  7
ARIAL
  0
ENDBLK
  5
2A6
  8
0
  0
BLOCK
  8
0
  2
*U17
 70
     1
 10
0.0
 20
0.0
 30
0.0
  3
*U17
  1

  0
TEXT
  5
2A8
  8
0
 62
     0
 10
109.5722294483527
 20
-5.499208608703448
 30
0.0
 40
2.9505988023952101
  1
3.00
 50
90.0
  7
ARIAL
  0
ENDBLK
  5
2AA
  8
0
  0
ENDSEC
  0
SECTION
  2
ENTITIES
  0
LINE
  5
88
  8
0
 10
14.99999999999979
 20
-0.0000000000000002
 30
0.0
 11
64.999999999999787
 21
-0.000000000000162
 31
0.0
1001
REVIT
1002
{
1070
     1
1000
315225
1002
}
1002
{
1070
     2
1000
-2002000
1002
}
1002
{
1070
     3
1000
206783
1002
}
  0
LINE
  5
89
  8
0
 10
64.999999999999801
 20
-0.0000000000001618
 30
0.0
 11
64.999999999999801
 21
-2.9999999999998468
 31
0.0
1001
REVIT
1002
{
1070
     1
1000
315229
1002
}
1002
{
1070
     2
1000
-2002000
1002
}
1002
{
1070
     3
1000
206783
1002
}
  0
LINE
  5
8A
  8
0
 10
64.999999999999801
 20
-2.9999999999998468
 30
0.0
 11
54.999999999999787
 21
-2.9999999999998161
 31
0.0
1001
REVIT
1002
{
1070
     1
1000
315233
1002
}
1002
{
1070
     2
1000
-2002000
1002
}
1002
{
1070
     3
1000
206783
1002
}
  0
LINE
  5
8B
  8
0
 10
14.99999999999979
 20
0.0
 30
0.0
 11
14.999999999999771
 21
-15.000000000000449
 31
0.0
1001
REVIT
1002
{
1070
     1
1000
315237
1002
}
1002
{
1070
     2
1000
-2002000
1002
}
1002
{
1070
     3
1000
206783
1002
}
  0
LINE
  5
8C
  8
0
 10
0.0
 20
-15.0000000000004
 30
0.0
 11
14.999999999999771
 21
-15.000000000000449
 31
0.0
1001
REVIT
1002
{
1070
     1
1000
315241
1002
}
1002
{
1070
     2
1000
-2002000
1002
}
1002
{
1070
     3
1000
206783
1002
}
  0
LINE
  5
8D
  8
0
 10
0.0
 20
-15.0000000000004
 30
0.0
 11
-0.0000000000000804
 21
-65.000000000000412
 31
0.0
1001
REVIT
1002
{
1070
     1
1000
315245
1002
}
1002
{
1070
     2
1000
-2002000
1002
}
1002
{
1070
     3
1000
206783
1002
}
  0
LINE
  5
8E
  8
0
 10
-0.0000000000000804
 20
-65.000000000000412
 30
0.0
 11
3.0000000000000808
 21
-65.000000000000412
 31
0.0
1001
REVIT
1002
{
1070
     1
1000
315249
1002
}
1002
{
1070
     2
1000
-2002000
1002
}
1002
{
1070
     3
1000
206783
1002
}
  0
LINE
  5
8F
  8
0
 10
3.0000000000000799
 20
-65.000000000000412
 30
0.0
 11
3.0000000000000959
 21
-55.000000000000412
 31
0.0
1001
REVIT
1002
{
1070
     1
1000
315253
1002
}
1002
{
1070
     2
1000
-2002000
1002
}
1002
{
1070
     3
1000
206783
1002
}
  0
ENDSEC
  0
EOF
