  0
SECTION
  2
HEADER
  9
$ACADVER
  1
AC1009
  9
$INSBASE
 10
0.0
 20
0.0
 30
0.0
  9
$EXTMIN
 10
-2.0672380437974311
 20
-60.470044978863427
 30
0.0
  9
$EXTMAX
 10
120.9878816775631
 20
119.1400952895093
 30
0.0
  9
$LIMMIN
 10
0.0
 20
0.0
  9
$LIMMAX
 10
12.0
 20
9.0
  9
$ORTHOMODE
 70
     0
  9
$REGENMODE
 70
     1
  9
$FILLMODE
 70
     1
  9
$QTEXTMODE
 70
     0
  9
$MIRRTEXT
 70
     0
  9
$DRAGMODE
 70
     2
  9
$LTSCALE
 40
1.0
  9
$OSMODE
 70
   127
  9
$ATTMODE
 70
     1
  9
$TEXTSIZE
 40
0.2
  9
$TRACEWID
 40
0.05
  9
$TEXTSTYLE
  7
STANDARD
  9
$CLAYER
  8
0
  9
$CELTYPE
  6
BYLAYER
  9
$CECOLOR
 62
   256
  9
$DIMSCALE
 40
1.0
  9
$DIMASZ
 40
0.18
  9
$DIMEXO
 40
0.0625
  9
$DIMDLI
 40
0.38
  9
$DIMRND
 40
0.0
  9
$DIMDLE
 40
0.0
  9
$DIMEXE
 40
0.18
  9
$DIMTP
 40
0.0
  9
$DIMTM
 40
0.0
  9
$DIMTXT
 40
0.18
  9
$DIMCEN
 40
0.09
  9
$DIMTSZ
 40
0.0
  9
$DIMTOL
 70
     0
  9
$DIMLIM
 70
     0
  9
$DIMTIH
 70
     1
  9
$DIMTOH
 70
     1
  9
$DIMSE1
 70
     0
  9
$DIMSE2
 70
     0
  9
$DIMTAD
 70
     0
  9
$DIMZIN
 70
     0
  9
$DIMBLK
  1

  9
$DIMASO
 70
     1
  9
$DIMSHO
 70
     1
  9
$DIMPOST
  1

  9
$DIMAPOST
  1

  9
$DIMALT
 70
     0
  9
$DIMALTD
 70
     2
  9
$DIMALTF
 40
25.399999999999999
  9
$DIMLFAC
 40
1.0
  9
$DIMTOFL
 70
     0
  9
$DIMTVP
 40
0.0
  9
$DIMTIX
 70
     0
  9
$DIMSOXD
 70
     0
  9
$DIMSAH
 70
     0
  9
$DIMBLK1
  1

  9
$DIMBLK2
  1

  9
$DIMSTYLE
  2
STANDARD
  9
$DIMCLRD
 70
     0
  9
$DIMCLRE
 70
     0
  9
$DIMCLRT
 70
     0
  9
$DIMTFAC
 40
1.0
  9
$DIMGAP
 40
0.09
  9
$LUNITS
 70
     2
  9
$LUPREC
 70
     4
  9
$SKETCHINC
 40
0.1
  9
$FILLETRAD
 40
0.0
  9
$AUNITS
 70
     0
  9
$AUPREC
 70
     0
  9
$MENU
  1
.
  9
$ELEVATION
 40
0.0
  9
$PELEVATION
 40
0.0
  9
$THICKNESS
 40
0.0
  9
$LIMCHECK
 70
     0
  9
$BLIPMODE
 70
     0
  9
$CHAMFERA
 40
0.0
  9
$CHAMFERB
 40
0.0
  9
$SKPOLY
 70
     0
  9
$TDCREATE
 40
2457375.5606270828
  9
$TDUPDATE
 40
2457378.9882957288
  9
$TDINDWG
 40
0.0001086921
  9
$TDUSRTIMER
 40
0.0001086921
  9
$USRTIMER
 70
     1
  9
$ANGBASE
 50
0.0
  9
$ANGDIR
 70
     0
  9
$PDMODE
 70
     0
  9
$PDSIZE
 40
0.0
  9
$PLINEWID
 40
0.0
  9
$COORDS
 70
     2
  9
$SPLFRAME
 70
     0
  9
$SPLINETYPE
 70
     6
  9
$SPLINESEGS
 70
     8
  9
$ATTDIA
 70
     0
  9
$ATTREQ
 70
     0
  9
$HANDLING
 70
     1
  9
$HANDSEED
  5
27F
  9
$SURFTAB1
 70
     6
  9
$SURFTAB2
 70
     6
  9
$SURFTYPE
 70
     6
  9
$SURFU
 70
     6
  9
$SURFV
 70
     6
  9
$UCSNAME
  2

  9
$UCSORG
 10
0.0
 20
0.0
 30
0.0
  9
$UCSXDIR
 10
1.0
 20
0.0
 30
0.0
  9
$UCSYDIR
 10
0.0
 20
1.0
 30
0.0
  9
$PUCSNAME
  2

  9
$PUCSORG
 10
0.0
 20
0.0
 30
0.0
  9
$PUCSXDIR
 10
1.0
 20
0.0
 30
0.0
  9
$PUCSYDIR
 10
0.0
 20
1.0
 30
0.0
  9
$USERI1
 70
     0
  9
$USERI2
 70
     0
  9
$USERI3
 70
     0
  9
$USERI4
 70
     0
  9
$USERI5
 70
     0
  9
$USERR1
 40
0.0
  9
$USERR2
 40
0.0
  9
$USERR3
 40
0.0
  9
$USERR4
 40
0.0
  9
$USERR5
 40
0.0
  9
$WORLDVIEW
 70
     1
  9
$SHADEDGE
 70
     3
  9
$SHADEDIF
 70
    70
  9
$TILEMODE
 70
     1
  9
$MAXACTVP
 70
    64
  9
$PLIMCHECK
 70
     0
  9
$PEXTMIN
 10
0.0
 20
0.0
 30
0.0
  9
$PEXTMAX
 10
0.0
 20
0.0
 30
0.0
  9
$PLIMMIN
 10
0.0
 20
0.0
  9
$PLIMMAX
 10
12.0
 20
9.0
  9
$UNITMODE
 70
     0
  9
$VISRETAIN
 70
     1
  9
$PLINEGEN
 70
     0
  9
$PSLTSCALE
 70
     1
  0
ENDSEC
  0
SECTION
  2
TABLES
  0
TABLE
  2
VPORT
 70
     1
  0
VPORT
  2
*ACTIVE
 70
     0
 10
0.0
 20
0.0
 11
1.0
 21
1.0
 12
196.554037288676
 22
28.93545859115855
 13
0.0
 23
0.0
 14
1.0
 24
1.0
 15
0.0
 25
0.0
 16
0.0
 26
0.0
 36
1.0
 17
0.0
 27
0.0
 37
0.0
 40
148.39587625271099
 41
1.7244755244755241
 42
50.0
 43
0.0
 44
0.0
 50
0.0
 51
0.0
 71
     0
 72
  1000
 73
     1
 74
     3
 75
     0
 76
     0
 77
     0
 78
     0
  0
ENDTAB
  0
TABLE
  2
LTYPE
 70
     1
  0
LTYPE
  2
CONTINUOUS
 70
     0
  3
Solid line
 72
    65
 73
     0
 40
0.0
  0
ENDTAB
  0
TABLE
  2
LAYER
 70
     5
  0
LAYER
  2
0
 70
     0
 62
     7
  6
CONTINUOUS
  0
LAYER
  2
DEFPOINTS
 70
     0
 62
     7
  6
CONTINUOUS
  0
ENDTAB
  0
TABLE
  2
STYLE
 70
     3
  0
STYLE
  2
STANDARD
 70
     0
 40
0.0
 41
1.0
 50
0.0
 71
     0
 42
0.2
  3
txt
  4

  0
STYLE
  2
ARIAL
 70
     0
 40
2.9505988023952101
 41
1.0
 50
0.0
 71
     0
 42
0.2
  3
txt
  4

  0
ENDTAB
  0
TABLE
  2
VIEW
 70
     0
  0
ENDTAB
  0
TABLE
  2
UCS
 70
     0
  0
ENDTAB
  0
TABLE
  2
APPID
 70
     5
  0
APPID
  2
ACAD
 70
     0
  0
APPID
  2
ACADANNOTATIVE
 70
     0
  0
APPID
  2
REVIT
 70
     0
  0
APPID
  2
ACAD_NAV_VCDISPLAY
 70
     0
  0
APPID
  2
ACAD_MLEADERVER
 70
     0
  0
ENDTAB
  0
TABLE
  2
DIMSTYLE
 70
     4
  0
DIMSTYLE
  2
STANDARD
 70
     0
  3

  4

  5

  6

  7

 40
1.0
 41
0.18
 42
0.0625
 43
0.38
 44
0.18
 45
0.0
 46
0.0
 47
0.0
 48
0.0
140
0.18
141
0.09
142
0.0
143
25.399999999999999
144
1.0
145
0.0
146
1.0
147
0.09
 71
     0
 72
     0
 73
     1
 74
     1
 75
     0
 76
     0
 77
     0
 78
     0
170
     0
171
     2
172
     0
173
     0
174
     0
175
     0
176
     0
177
     0
178
     0
  0
DIMSTYLE
  2
LINEAR
 70
     0
  3
<>
  4

  5

  6
OBLIQUE
  7
OBLIQUE
 40
304.80000000000001
 41
0.0065616797900262
 42
0.0065616797900262
 43
0.38
 44
0.0065616797900262
 45
0.01
 46
0.0
 47
0.0
 48
0.0
140
3.0
141
0.09
142
0.0
143
25.399999999999999
144
1.0
145
1.0
146
1.0
147
0.0065616797900262
 71
     0
 72
     0
 73
     0
 74
     0
 75
     0
 76
     0
 77
     1
 78
     0
170
     0
171
     2
172
     1
173
     1
174
     1
175
     0
176
     0
177
     0
178
     0
  0
DIMSTYLE
  2
LINEAR_1
 70
     0
  3
<>
  4

  5

  6
OBLIQUE
  7
OBLIQUE
 40
304.80000000000001
 41
0.0065616797900262
 42
0.0065616797900262
 43
0.38
 44
0.0065616797900262
 45
0.01
 46
0.0
 47
0.0
 48
0.0
140
3.0
141
0.09
142
0.0
143
25.399999999999999
144
1.0
145
1.0
146
1.0
147
0.0065616797900262
 71
     0
 72
     0
 73
     0
 74
     0
 75
     0
 76
     0
 77
     1
 78
     0
170
     0
171
     2
172
     1
173
     1
174
     1
175
     0
176
     0
177
     0
178
     0
  0
ENDTAB
  0
ENDSEC
  0
SECTION
  2
BLOCKS
  0
BLOCK
  8
0
  2
$MODEL_SPACE
 70
     0
 10
0.0
 20
0.0
 30
0.0
  3
$MODEL_SPACE
  1

  0
ENDBLK
  5
72
  8
0
  0
BLOCK
 67
     1
  8
0
  2
$PAPER_SPACE
 70
     0
 10
0.0
 20
0.0
 30
0.0
  3
$PAPER_SPACE
  1

  0
ENDBLK
  5
76
 67
     1
  8
0
  0
BLOCK
  8
0
  2
_OBLIQUE
 70
     0
 10
0.0
 20
0.0
 30
0.0
  3
_OBLIQUE
  1

  0
LINE
  5
A1
  8
0
  6
BYBLOCK
 62
     0
 10
-0.5
 20
-0.5
 30
0.0
 11
0.5
 21
0.5
 31
0.0
  0
ENDBLK
  5
A3
  8
0
  0
BLOCK
  8
0
  2
DIMBLOCK1-REF__LEVEL
 70
     0
 10
0.0
 20
0.0
 30
0.0
  3
DIMBLOCK1-REF__LEVEL
  1

  0
LINE
  5
1AE
  8
0
 62
     0
 10
8.8995163067042462
 20
101.7219368549013
 30
0.0
 11
8.7762594732718018
 21
100.31310480209579
 31
0.0
  0
LINE
  5
1AF
  8
0
 62
     0
 10
18.861463287621699
 20
100.8503794274247
 30
0.0
 11
18.73820645418925
 21
99.441547374619205
 31
0.0
  0
LINE
  5
1B0
  8
0
 62
     0
 10
8.9505709587671287
 20
102.30549419827931
 30
0.0
 11
18.91251793968458
 21
101.4339367708027
 31
0.0
  0
INSERT
  5
1B1
  8
0
  2
*U15
 10
0.0
 20
0.0
 30
0.0
  0
INSERT
  5
1B2
  8
0
 62
     0
  2
_OBLIQUE
 10
8.9505709587671287
 20
102.30549419827931
 30
0.0
 41
2.0
 42
2.0
 43
2.0
 50
174.99999999999969
  0
INSERT
  5
1B3
  8
0
 62
     0
  2
_OBLIQUE
 10
18.91251793968458
 20
101.4339367708027
 30
0.0
 41
2.0
 42
2.0
 43
2.0
 50
354.99999999999972
  0
POINT
  5
1B4
  8
DEFPOINTS
 62
     0
 10
9.0738277921995731
 20
103.7143262510848
 30
0.0
  0
POINT
  5
1B5
  8
DEFPOINTS
 62
     0
 10
19.03577477311703
 20
102.8427688236082
 30
0.0
  0
POINT
  5
1B6
  8
DEFPOINTS
 62
     0
 10
18.91251793968458
 20
101.4339367708027
 30
0.0
  0
ENDBLK
  5
9E
  8
0
  0
BLOCK
  8
0
  2
DIMBLOCK2-REF__LEVEL
 70
     0
 10
0.0
 20
0.0
 30
0.0
  3
DIMBLOCK2-REF__LEVEL
  1

  0
LINE
  5
1A3
  8
0
 62
     0
 10
118.41193493800149
 20
-7.3482424206147519
 30
0.0
 11
117.0031028851961
 21
-7.2249855871823101
 31
0.0
  0
LINE
  5
1A4
  8
0
 62
     0
 10
118.1504677097586
 20
-10.33682651488999
 30
0.0
 11
116.74163565695309
 21
-10.21356968145755
 31
0.0
  0
LINE
  5
1A5
  8
0
 62
     0
 10
118.9954922813796
 20
-7.399297072677637
 30
0.0
 11
119.16980376687491
 21
-5.4069076764941473
 31
0.0
  0
LINE
  5
1A6
  8
0
 62
     0
 10
118.73402505313661
 20
-10.387881166952869
 30
0.0
 11
118.5597135676412
 21
-12.38027056313636
 31
0.0
  0
LINE
  5
1A7
  8
0
 62
     0
 10
118.9954922813796
 20
-7.399297072677637
 30
0.0
 11
118.73402505313661
 21
-10.387881166952869
 31
0.0
  0
INSERT
  5
1A8
  8
0
 62
     0
  2
_OBLIQUE
 10
118.9954922813796
 20
-7.399297072677637
 30
0.0
 41
2.0
 42
2.0
 43
2.0
 50
264.99999999999972
  0
INSERT
  5
1A9
  8
0
 62
     0
  2
_OBLIQUE
 10
118.73402505313661
 20
-10.387881166952869
 30
0.0
 41
2.0
 42
2.0
 43
2.0
 50
84.999999999999673
  0
INSERT
  5
1AA
  8
0
  2
*U14
 10
0.0
 20
0.0
 30
0.0
  0
POINT
  5
1AB
  8
DEFPOINTS
 62
     0
 10
120.40432433418501
 20
-7.5225539061100788
 30
0.0
  0
POINT
  5
1AC
  8
DEFPOINTS
 62
     0
 10
120.1428571059421
 20
-10.511138000385319
 30
0.0
  0
POINT
  5
1AD
  8
DEFPOINTS
 62
     0
 10
118.73402505313661
 20
-10.387881166952869
 30
0.0
  0
ENDBLK
  5
BE
  8
0
  0
BLOCK
  8
0
  2
DIMBLOCK3-REF__LEVEL
 70
     0
 10
0.0
 20
0.0
 30
0.0
  3
DIMBLOCK3-REF__LEVEL
  1

  0
LINE
  5
19A
  8
0
 62
     0
 10
9.9767768029143813
 20
114.0350806702811
 30
0.0
 11
9.8535199694819333
 21
112.6262486174756
 31
0.0
  0
LINE
  5
19B
  8
0
 62
     0
 10
67.756069292235608
 20
108.9800475909167
 30
0.0
 11
67.632812458803159
 21
107.5712155381111
 31
0.0
  0
LINE
  5
19C
  8
0
 62
     0
 10
10.02783145497726
 20
114.61863801365909
 30
0.0
 11
67.807123944298496
 21
109.5636049342946
 31
0.0
  0
INSERT
  5
19D
  8
0
 62
     0
  2
_OBLIQUE
 10
10.02783145497726
 20
114.61863801365909
 30
0.0
 41
2.0
 42
2.0
 43
2.0
 50
174.99999999999969
  0
INSERT
  5
19E
  8
0
 62
     0
  2
_OBLIQUE
 10
67.807123944298496
 20
109.5636049342946
 30
0.0
 41
2.0
 42
2.0
 43
2.0
 50
354.99999999999977
  0
INSERT
  5
19F
  8
0
  2
*U13
 10
0.0
 20
0.0
 30
0.0
  0
POINT
  5
1A0
  8
DEFPOINTS
 62
     0
 10
10.151088288409699
 20
116.0274700664646
 30
0.0
  0
POINT
  5
1A1
  8
DEFPOINTS
 62
     0
 10
67.930380777730932
 20
110.9724369871002
 30
0.0
  0
POINT
  5
1A2
  8
DEFPOINTS
 62
     0
 10
67.807123944298496
 20
109.5636049342946
 30
0.0
  0
ENDBLK
  5
DB
  8
0
  0
BLOCK
  8
0
  2
DIMBLOCK4-REF__LEVEL
 70
     0
 10
0.0
 20
0.0
 30
0.0
  3
DIMBLOCK4-REF__LEVEL
  1

  0
LINE
  5
191
  8
0
 62
     0
 10
-0.1743114854953269
 20
-1.99238939618349
 30
0.0
 11
-1.1581990884533491
 21
-13.238276158031489
 31
0.0
  0
LINE
  5
192
  8
0
 62
     0
 10
57.604981003825898
 20
-7.047422475548033
 30
0.0
 11
56.621093400867878
 21
-18.29330923739597
 31
0.0
  0
LINE
  5
193
  8
0
 62
     0
 10
-0.9838876029580225
 20
-11.245886761848
 30
0.0
 11
56.795404886363201
 21
-16.300919841212469
 31
0.0
  0
INSERT
  5
194
  8
0
 62
     0
  2
_OBLIQUE
 10
-0.9838876029580225
 20
-11.245886761848
 30
0.0
 41
2.0
 42
2.0
 43
2.0
 50
174.99999999999969
  0
INSERT
  5
195
  8
0
 62
     0
  2
_OBLIQUE
 10
56.795404886363201
 20
-16.300919841212469
 30
0.0
 41
2.0
 42
2.0
 43
2.0
 50
354.99999999999972
  0
INSERT
  5
196
  8
0
  2
*U12
 10
0.0
 20
0.0
 30
0.0
  0
POINT
  5
197
  8
DEFPOINTS
 62
     0
 10
0.0
 20
0.0
 30
0.0
  0
POINT
  5
198
  8
DEFPOINTS
 62
     0
 10
57.779292489321222
 20
-5.0550330793645442
 30
0.0
  0
POINT
  5
199
  8
DEFPOINTS
 62
     0
 10
56.795404886363201
 20
-16.300919841212469
 30
0.0
  0
ENDBLK
  5
F5
  8
0
  0
BLOCK
  8
0
  2
DIMBLOCK5-REF__LEVEL
 70
     0
 10
0.0
 20
0.0
 30
0.0
  3
DIMBLOCK5-REF__LEVEL
  1

  0
LINE
  5
188
  8
0
 62
     0
 10
59.779292489321222
 20
-5.0550330793645317
 30
0.0
 11
71.532991286907418
 21
-5.0550330793645362
 31
0.0
  0
LINE
  5
189
  8
0
 62
     0
 10
59.779292489321172
 20
-40.055033079364527
 30
0.0
 11
71.532991286907404
 21
-40.055033079364527
 31
0.0
  0
LINE
  5
18A
  8
0
 62
     0
 10
69.532991286907404
 20
-5.0550330793645353
 30
0.0
 11
69.532991286907404
 21
-40.055033079364527
 31
0.0
  0
INSERT
  5
18B
  8
0
 62
     0
  2
_OBLIQUE
 10
69.532991286907404
 20
-5.0550330793645353
 30
0.0
 41
2.0
 42
2.0
 43
2.0
 50
90.0
  0
INSERT
  5
18C
  8
0
 62
     0
  2
_OBLIQUE
 10
69.532991286907404
 20
-40.055033079364527
 30
0.0
 41
2.0
 42
2.0
 43
2.0
 50
270.0
  0
INSERT
  5
18D
  8
0
  2
*U11
 10
0.0
 20
0.0
 30
0.0
  0
POINT
  5
18E
  8
DEFPOINTS
 62
     0
 10
57.779292489321222
 20
-5.0550330793645308
 30
0.0
  0
POINT
  5
18F
  8
DEFPOINTS
 62
     0
 10
57.779292489321172
 20
-40.055033079364527
 30
0.0
  0
POINT
  5
190
  8
DEFPOINTS
 62
     0
 10
69.532991286907404
 20
-40.055033079364527
 30
0.0
  0
ENDBLK
  5
10F
  8
0
  0
BLOCK
  8
0
  2
DIMBLOCK6-REF__LEVEL
 70
     0
 10
0.0
 20
0.0
 30
0.0
  3
DIMBLOCK6-REF__LEVEL
  1

  0
LINE
  5
17D
  8
0
 62
     0
 10
59.193506051694271
 20
-38.640819516991442
 30
0.0
 11
71.990902648842777
 21
-25.843422919843011
 31
0.0
  0
LINE
  5
17E
  8
0
 62
     0
 10
66.264573863559733
 20
-45.711887328856939
 30
0.0
 11
79.061970460708238
 21
-32.914490731708511
 31
0.0
  0
LINE
  5
17F
  8
0
 62
     0
 10
70.576689086469685
 20
-27.2576364822161
 30
0.0
 11
69.162475524096564
 21
-25.843422919843011
 31
0.0
  0
LINE
  5
180
  8
0
 62
     0
 10
77.647756898335132
 20
-34.328704294081597
 30
0.0
 11
79.061970460708238
 21
-35.742917856454703
 31
0.0
  0
LINE
  5
181
  8
0
 62
     0
 10
70.576689086469685
 20
-27.2576364822161
 30
0.0
 11
77.647756898335132
 21
-34.328704294081597
 31
0.0
  0
INSERT
  5
182
  8
0
 62
     0
  2
_OBLIQUE
 10
70.576689086469685
 20
-27.2576364822161
 30
0.0
 41
2.0
 42
2.0
 43
2.0
 50
314.99999999999989
  0
INSERT
  5
183
  8
0
 62
     0
  2
_OBLIQUE
 10
77.647756898335132
 20
-34.328704294081597
 30
0.0
 41
2.0
 42
2.0
 43
2.0
 50
134.9999999999998
  0
INSERT
  5
184
  8
0
  2
*U10
 10
0.0
 20
0.0
 30
0.0
  0
POINT
  5
185
  8
DEFPOINTS
 62
     0
 10
57.779292489321172
 20
-40.055033079364527
 30
0.0
  0
POINT
  5
186
  8
DEFPOINTS
 62
     0
 10
64.85036030118664
 20
-47.126100891230031
 30
0.0
  0
POINT
  5
187
  8
DEFPOINTS
 62
     0
 10
77.647756898335132
 20
-34.328704294081597
 30
0.0
  0
ENDBLK
  5
129
  8
0
  0
BLOCK
  8
0
  2
DIMBLOCK7-REF__LEVEL
 70
     0
 10
0.0
 20
0.0
 30
0.0
  3
DIMBLOCK7-REF__LEVEL
  1

  0
LINE
  5
172
  8
0
 62
     0
 10
61.31230313979308
 20
-53.49258517736974
 30
0.0
 11
68.289762941286725
 21
-60.470044978863427
 31
0.0
  0
LINE
  5
173
  8
0
 62
     0
 10
66.264573863559718
 20
-48.540314453603131
 30
0.0
 11
73.242033665053356
 21
-55.517774255096832
 31
0.0
  0
LINE
  5
174
  8
0
 62
     0
 10
66.875549378913632
 20
-59.055831416490328
 30
0.0
 11
65.46133581654054
 21
-60.470044978863427
 31
0.0
  0
LINE
  5
175
  8
0
 62
     0
 10
71.827820102680263
 20
-54.103560692723718
 30
0.0
 11
73.242033665053384
 21
-52.689347130350633
 31
0.0
  0
LINE
  5
176
  8
0
 62
     0
 10
66.875549378913632
 20
-59.055831416490328
 30
0.0
 11
71.827820102680263
 21
-54.103560692723718
 31
0.0
  0
INSERT
  5
177
  8
0
 62
     0
  2
_OBLIQUE
 10
66.875549378913632
 20
-59.055831416490328
 30
0.0
 41
2.0
 42
2.0
 43
2.0
 50
44.999999999999837
  0
INSERT
  5
178
  8
0
 62
     0
  2
_OBLIQUE
 10
71.827820102680263
 20
-54.103560692723718
 30
0.0
 41
2.0
 42
2.0
 43
2.0
 50
224.99999999999989
  0
INSERT
  5
179
  8
0
  2
*U9
 10
0.0
 20
0.0
 30
0.0
  0
POINT
  5
17A
  8
DEFPOINTS
 62
     0
 10
59.898089577419988
 20
-52.078371614996641
 30
0.0
  0
POINT
  5
17B
  8
DEFPOINTS
 62
     0
 10
64.85036030118664
 20
-47.126100891230017
 30
0.0
  0
POINT
  5
17C
  8
DEFPOINTS
 62
     0
 10
71.827820102680263
 20
-54.103560692723718
 30
0.0
  0
ENDBLK
  5
145
  8
0
  0
BLOCK
  8
0
  2
*U9
 70
     1
 10
0.0
 20
0.0
 30
0.0
  3
*U9
  1

  0
TEXT
  5
264
  8
0
 62
     0
 10
65.061926972342903
 20
-57.961328368425967
 30
0.0
 40
2.9505988023952101
  1
7.00
 50
44.999999999999829
  7
ARIAL
  0
ENDBLK
  5
266
  8
0
  0
BLOCK
  8
0
  2
*U10
 70
     1
 10
0.0
 20
0.0
 30
0.0
  3
*U10
  1

  0
TEXT
  5
268
  8
0
 62
     0
 10
71.830426506177531
 20
-25.603248447288848
 30
0.0
 40
2.9505988023952101
  1
10.00
 50
314.99999999999989
  7
ARIAL
  0
ENDBLK
  5
26A
  8
0
  0
BLOCK
  8
0
  2
*U11
 70
     1
 10
0.0
 20
0.0
 30
0.0
  3
*U11
  1

  0
TEXT
  5
26C
  8
0
 62
     0
 10
67.47462337062538
 20
-27.700466802641031
 30
0.0
 40
2.9505988023952101
  1
35.00
 50
90.0
  7
ARIAL
  0
ENDBLK
  5
26E
  8
0
  0
BLOCK
  8
0
  2
*U12
 70
     1
 10
0.0
 20
0.0
 30
0.0
  3
*U12
  1

  0
TEXT
  5
270
  8
0
 62
     0
 10
22.960130528517151
 20
-11.27650673518953
 30
0.0
 40
2.9505988023952101
  1
58.00
 50
354.99999999999972
  7
ARIAL
  0
ENDBLK
  5
272
  8
0
  0
BLOCK
  8
0
  2
*U13
 70
     1
 10
0.0
 20
0.0
 30
0.0
  3
*U13
  1

  0
TEXT
  5
274
  8
0
 62
     0
 10
33.971849586452429
 20
114.58801804031749
 30
0.0
 40
2.9505988023952101
  1
58.00
 50
354.99999999999977
  7
ARIAL
  0
ENDBLK
  5
276
  8
0
  0
BLOCK
  8
0
  2
*U14
 70
     1
 10
0.0
 20
0.0
 30
0.0
  3
*U14
  1

  0
TEXT
  5
278
  8
0
 62
     0
 10
116.4656694656414
 20
-12.69818094777699
 30
0.0
 40
2.9505988023952101
  1
3.00
 50
84.999999999999673
  7
ARIAL
  0
ENDBLK
  5
27A
  8
0
  0
BLOCK
  8
0
  2
*U15
 70
     1
 10
0.0
 20
0.0
 30
0.0
  3
*U15
  1

  0
TEXT
  5
27C
  8
0
 62
     0
 10
10.118135538479461
 20
107.19816560986879
 30
0.0
 40
2.9505988023952101
  1
10.00
 50
354.99999999999972
  7
ARIAL
  0
ENDBLK
  5
27E
  8
0
  0
ENDSEC
  0
SECTION
  2
ENTITIES
  0
LINE
  5
88
  8
0
 10
0.2614672282429904
 20
2.9885840942752351
 30
0.0
 11
10.22341420916044
 21
2.1170266667985911
 31
0.0
1001
REVIT
1002
{
1070
     1
1000
318802
1002
}
1002
{
1070
     2
1000
-2002000
1002
}
1002
{
1070
     3
1000
206783
1002
}
  0
LINE
  5
89
  8
0
 10
0.2614672282429904
 20
2.9885840942752351
 30
0.0
 11
0.0000000000000022
 21
0.0000000000000003
 31
0.0
1001
REVIT
1002
{
1070
     1
1000
318806
1002
}
1002
{
1070
     2
1000
-2002000
1002
}
1002
{
1070
     3
1000
206783
1002
}
  0
LINE
  5
8A
  8
0
 10
0.0000000000000026
 20
0.0000000000000001
 30
0.0
 11
57.779292489321222
 21
-5.0550330793645317
 31
0.0
1001
REVIT
1002
{
1070
     1
1000
318810
1002
}
1002
{
1070
     2
1000
-2002000
1002
}
1002
{
1070
     3
1000
206783
1002
}
  0
LINE
  5
8B
  8
0
 10
57.779292489321222
 20
-5.0550330793645317
 30
0.0
 11
57.779292489321158
 21
-40.055033079364527
 31
0.0
1001
REVIT
1002
{
1070
     1
1000
318816
1002
}
1002
{
1070
     2
1000
-2002000
1002
}
1002
{
1070
     3
1000
206783
1002
}
  0
LINE
  5
8C
  8
0
 10
57.779292489321172
 20
-40.055033079364527
 30
0.0
 11
64.850360301186626
 21
-47.126100891230017
 31
0.0
1001
REVIT
1002
{
1070
     1
1000
318817
1002
}
1002
{
1070
     2
1000
-2002000
1002
}
1002
{
1070
     3
1000
206783
1002
}
  0
LINE
  5
8D
  8
0
 10
64.850360301186626
 20
-47.126100891230017
 30
0.0
 11
59.898089577419988
 21
-52.078371614996641
 31
0.0
1001
REVIT
1002
{
1070
     1
1000
318818
1002
}
1002
{
1070
     2
1000
-2002000
1002
}
1002
{
1070
     3
1000
206783
1002
}
  0
ENDSEC
  0
EOF
