  0
SECTION
  2
HEADER
  9
$ACADVER
  1
AC1009
  9
$INSBASE
 10
0.0
 20
0.0
 30
0.0
  9
$EXTMIN
 10
-85.727172893711383
 20
-81.775674565495265
 30
0.0
  9
$EXTMAX
 10
31.435898432176309
 20
33.461328390018288
 30
0.0
  9
$LIMMIN
 10
0.0
 20
0.0
  9
$LIMMAX
 10
12.0
 20
9.0
  9
$ORTHOMODE
 70
     0
  9
$REGENMODE
 70
     1
  9
$FILLMODE
 70
     1
  9
$QTEXTMODE
 70
     0
  9
$MIRRTEXT
 70
     0
  9
$DRAGMODE
 70
     2
  9
$LTSCALE
 40
1.0
  9
$OSMODE
 70
   127
  9
$ATTMODE
 70
     1
  9
$TEXTSIZE
 40
0.2
  9
$TRACEWID
 40
0.05
  9
$TEXTSTYLE
  7
STANDARD
  9
$CLAYER
  8
0
  9
$CELTYPE
  6
BYLAYER
  9
$CECOLOR
 62
   256
  9
$DIMSCALE
 40
1.0
  9
$DIMASZ
 40
0.18
  9
$DIMEXO
 40
0.0625
  9
$DIMDLI
 40
0.38
  9
$DIMRND
 40
0.0
  9
$DIMDLE
 40
0.0
  9
$DIMEXE
 40
0.18
  9
$DIMTP
 40
0.0
  9
$DIMTM
 40
0.0
  9
$DIMTXT
 40
0.18
  9
$DIMCEN
 40
0.09
  9
$DIMTSZ
 40
0.0
  9
$DIMTOL
 70
     0
  9
$DIMLIM
 70
     0
  9
$DIMTIH
 70
     1
  9
$DIMTOH
 70
     1
  9
$DIMSE1
 70
     0
  9
$DIMSE2
 70
     0
  9
$DIMTAD
 70
     0
  9
$DIMZIN
 70
     0
  9
$DIMBLK
  1

  9
$DIMASO
 70
     1
  9
$DIMSHO
 70
     1
  9
$DIMPOST
  1

  9
$DIMAPOST
  1

  9
$DIMALT
 70
     0
  9
$DIMALTD
 70
     2
  9
$DIMALTF
 40
25.399999999999999
  9
$DIMLFAC
 40
1.0
  9
$DIMTOFL
 70
     0
  9
$DIMTVP
 40
0.0
  9
$DIMTIX
 70
     0
  9
$DIMSOXD
 70
     0
  9
$DIMSAH
 70
     0
  9
$DIMBLK1
  1

  9
$DIMBLK2
  1

  9
$DIMSTYLE
  2
STANDARD
  9
$DIMCLRD
 70
     0
  9
$DIMCLRE
 70
     0
  9
$DIMCLRT
 70
     0
  9
$DIMTFAC
 40
1.0
  9
$DIMGAP
 40
0.09
  9
$LUNITS
 70
     2
  9
$LUPREC
 70
     4
  9
$SKETCHINC
 40
0.1
  9
$FILLETRAD
 40
0.0
  9
$AUNITS
 70
     0
  9
$AUPREC
 70
     0
  9
$MENU
  1
.
  9
$ELEVATION
 40
0.0
  9
$PELEVATION
 40
0.0
  9
$THICKNESS
 40
0.0
  9
$LIMCHECK
 70
     0
  9
$BLIPMODE
 70
     0
  9
$CHAMFERA
 40
0.0
  9
$CHAMFERB
 40
0.0
  9
$SKPOLY
 70
     0
  9
$TDCREATE
 40
2457375.5602085181
  9
$TDUPDATE
 40
2457378.9877284728
  9
$TDINDWG
 40
0.0001022106
  9
$TDUSRTIMER
 40
0.0001022106
  9
$USRTIMER
 70
     1
  9
$ANGBASE
 50
0.0
  9
$ANGDIR
 70
     0
  9
$PDMODE
 70
     0
  9
$PDSIZE
 40
0.0
  9
$PLINEWID
 40
0.0
  9
$COORDS
 70
     2
  9
$SPLFRAME
 70
     0
  9
$SPLINETYPE
 70
     6
  9
$SPLINESEGS
 70
     8
  9
$ATTDIA
 70
     0
  9
$ATTREQ
 70
     0
  9
$HANDLING
 70
     1
  9
$HANDSEED
  5
2DF
  9
$SURFTAB1
 70
     6
  9
$SURFTAB2
 70
     6
  9
$SURFTYPE
 70
     6
  9
$SURFU
 70
     6
  9
$SURFV
 70
     6
  9
$UCSNAME
  2

  9
$UCSORG
 10
0.0
 20
0.0
 30
0.0
  9
$UCSXDIR
 10
1.0
 20
0.0
 30
0.0
  9
$UCSYDIR
 10
0.0
 20
1.0
 30
0.0
  9
$PUCSNAME
  2

  9
$PUCSORG
 10
0.0
 20
0.0
 30
0.0
  9
$PUCSXDIR
 10
1.0
 20
0.0
 30
0.0
  9
$PUCSYDIR
 10
0.0
 20
1.0
 30
0.0
  9
$USERI1
 70
     0
  9
$USERI2
 70
     0
  9
$USERI3
 70
     0
  9
$USERI4
 70
     0
  9
$USERI5
 70
     0
  9
$USERR1
 40
0.0
  9
$USERR2
 40
0.0
  9
$USERR3
 40
0.0
  9
$USERR4
 40
0.0
  9
$USERR5
 40
0.0
  9
$WORLDVIEW
 70
     1
  9
$SHADEDGE
 70
     3
  9
$SHADEDIF
 70
    70
  9
$TILEMODE
 70
     1
  9
$MAXACTVP
 70
    64
  9
$PLIMCHECK
 70
     0
  9
$PEXTMIN
 10
0.0
 20
0.0
 30
0.0
  9
$PEXTMAX
 10
0.0
 20
0.0
 30
0.0
  9
$PLIMMIN
 10
0.0
 20
0.0
  9
$PLIMMAX
 10
12.0
 20
9.0
  9
$UNITMODE
 70
     0
  9
$VISRETAIN
 70
     1
  9
$PLINEGEN
 70
     0
  9
$PSLTSCALE
 70
     1
  0
ENDSEC
  0
SECTION
  2
TABLES
  0
TABLE
  2
VPORT
 70
     1
  0
VPORT
  2
*ACTIVE
 70
     0
 10
0.0
 20
0.0
 11
1.0
 21
1.0
 12
42.448591170967767
 22
-24.547634320797609
 13
0.0
 23
0.0
 14
1.0
 24
1.0
 15
0.0
 25
0.0
 16
0.0
 26
0.0
 36
1.0
 17
0.0
 27
0.0
 37
0.0
 40
94.987498970755254
 41
1.7244755244755241
 42
50.0
 43
0.0
 44
0.0
 50
0.0
 51
0.0
 71
     0
 72
  1000
 73
     1
 74
     3
 75
     0
 76
     0
 77
     0
 78
     0
  0
ENDTAB
  0
TABLE
  2
LTYPE
 70
     1
  0
LTYPE
  2
CONTINUOUS
 70
     0
  3
Solid line
 72
    65
 73
     0
 40
0.0
  0
ENDTAB
  0
TABLE
  2
LAYER
 70
     5
  0
LAYER
  2
0
 70
     0
 62
     7
  6
CONTINUOUS
  0
LAYER
  2
DEFPOINTS
 70
     0
 62
     7
  6
CONTINUOUS
  0
ENDTAB
  0
TABLE
  2
STYLE
 70
     3
  0
STYLE
  2
STANDARD
 70
     0
 40
0.0
 41
1.0
 50
0.0
 71
     0
 42
0.2
  3
txt
  4

  0
STYLE
  2
ARIAL
 70
     0
 40
2.9505988023952101
 41
1.0
 50
0.0
 71
     0
 42
0.2
  3
txt
  4

  0
ENDTAB
  0
TABLE
  2
VIEW
 70
     0
  0
ENDTAB
  0
TABLE
  2
UCS
 70
     0
  0
ENDTAB
  0
TABLE
  2
APPID
 70
     5
  0
APPID
  2
ACAD
 70
     0
  0
APPID
  2
ACADANNOTATIVE
 70
     0
  0
APPID
  2
REVIT
 70
     0
  0
APPID
  2
ACAD_NAV_VCDISPLAY
 70
     0
  0
APPID
  2
ACAD_MLEADERVER
 70
     0
  0
ENDTAB
  0
TABLE
  2
DIMSTYLE
 70
     4
  0
DIMSTYLE
  2
STANDARD
 70
     0
  3

  4

  5

  6

  7

 40
1.0
 41
0.18
 42
0.0625
 43
0.38
 44
0.18
 45
0.0
 46
0.0
 47
0.0
 48
0.0
140
0.18
141
0.09
142
0.0
143
25.399999999999999
144
1.0
145
0.0
146
1.0
147
0.09
 71
     0
 72
     0
 73
     1
 74
     1
 75
     0
 76
     0
 77
     0
 78
     0
170
     0
171
     2
172
     0
173
     0
174
     0
175
     0
176
     0
177
     0
178
     0
  0
DIMSTYLE
  2
ANGULAR
 70
     0
  3
<>
  4

  5

  6
OBLIQUE
  7
OBLIQUE
 40
304.80000000000001
 41
0.0065616797900262
 42
0.0065616797900262
 43
0.38
 44
0.0065616797900262
 45
0.0
 46
0.0
 47
0.0
 48
0.0
140
3.0
141
0.09
142
0.0
143
25.399999999999999
144
1.0
145
1.0
146
1.0
147
0.0065616797900262
 71
     0
 72
     0
 73
     0
 74
     0
 75
     0
 76
     0
 77
     1
 78
     0
170
     0
171
     2
172
     1
173
     1
174
     1
175
     0
176
     0
177
     0
178
     0
  0
DIMSTYLE
  2
LINEAR
 70
     0
  3
<>
  4

  5

  6
OBLIQUE
  7
OBLIQUE
 40
304.80000000000001
 41
0.0065616797900262
 42
0.0065616797900262
 43
0.38
 44
0.0065616797900262
 45
0.01
 46
0.0
 47
0.0
 48
0.0
140
3.0
141
0.09
142
0.0
143
25.399999999999999
144
1.0
145
1.0
146
1.0
147
0.0065616797900262
 71
     0
 72
     0
 73
     0
 74
     0
 75
     0
 76
     0
 77
     1
 78
     0
170
     0
171
     2
172
     1
173
     1
174
     1
175
     0
176
     0
177
     0
178
     0
  0
ENDTAB
  0
ENDSEC
  0
SECTION
  2
BLOCKS
  0
BLOCK
  8
0
  2
$MODEL_SPACE
 70
     0
 10
0.0
 20
0.0
 30
0.0
  3
$MODEL_SPACE
  1

  0
ENDBLK
  5
72
  8
0
  0
BLOCK
 67
     1
  8
0
  2
$PAPER_SPACE
 70
     0
 10
0.0
 20
0.0
 30
0.0
  3
$PAPER_SPACE
  1

  0
ENDBLK
  5
76
 67
     1
  8
0
  0
BLOCK
  8
0
  2
_OBLIQUE
 70
     0
 10
0.0
 20
0.0
 30
0.0
  3
_OBLIQUE
  1

  0
LINE
  5
A4
  8
0
  6
BYBLOCK
 62
     0
 10
-0.5
 20
-0.5
 30
0.0
 11
0.5
 21
0.5
 31
0.0
  0
ENDBLK
  5
A6
  8
0
  0
BLOCK
  8
0
  2
DIMBLOCK1-REF__LEVEL
 70
     0
 10
0.0
 20
0.0
 30
0.0
  3
DIMBLOCK1-REF__LEVEL
  1

  0
LINE
  5
205
  8
0
 62
     0
 10
-71.713883705290925
 20
-1.4799875322690239
 30
0.0
 11
-77.400282649099481
 21
-8.2567739024766666
 31
0.0
  0
LINE
  5
206
  8
0
 62
     0
 10
-53.285665398596301
 20
-1.0300761498199149
 30
0.0
 11
-49.131432940066219
 21
-3.5261908364367249
 31
0.0
  0
ARC
  5
207
  8
0
 62
     0
 10
-65.286007608425479
 20
6.1804568989207089
 30
0.0
 40
16.846466325916751
 50
229.99999999999949
 51
328.9999999999996
  0
INSERT
  5
208
  8
0
 62
     0
  2
_OBLIQUE
 10
-76.114707429726408
 20
-6.7246850162387206
 30
0.0
 41
2.0
 42
2.0
 43
2.0
 50
139.99999999999949
  0
INSERT
  5
209
  8
0
 62
     0
  2
_OBLIQUE
 10
-50.845767541470437
 20
-2.4961146866166071
 30
0.0
 41
2.0
 42
2.0
 43
2.0
 50
58.999999999999631
  0
INSERT
  5
20A
  8
0
  2
*U19
 10
0.0
 20
0.0
 30
0.0
  0
POINT
  5
20B
  8
DEFPOINTS
 62
     0
 10
-65.286007608425479
 20
6.1804568989207089
 30
0.0
  0
POINT
  5
20C
  8
DEFPOINTS
 62
     0
 10
-70.428308485917853
 20
0.0521013539689221
 30
0.0
  0
POINT
  5
20D
  8
DEFPOINTS
 62
     0
 10
-55.000000000000519
 20
0.0000000000002025
 30
0.0
  0
POINT
  5
20E
  8
DEFPOINTS
 62
     0
 10
-67.339075398262011
 20
-10.540438421623071
 30
0.0
  0
ENDBLK
  5
A1
  8
0
  0
BLOCK
  8
0
  2
DIMBLOCK2-REF__LEVEL
 70
     0
 10
0.0
 20
0.0
 30
0.0
  3
DIMBLOCK2-REF__LEVEL
  1

  0
LINE
  5
1FA
  8
0
 62
     0
 10
-64.255931458605346
 20
7.8947915003249269
 30
0.0
 11
-56.805937311073258
 21
20.29366390369383
 31
0.0
  0
LINE
  5
1FB
  8
0
 62
     0
 10
-53.9699238501804
 20
1.7143346014044241
 30
0.0
 11
-46.519929702648312
 21
14.113207004773329
 31
0.0
  0
LINE
  5
1FC
  8
0
 62
     0
 10
-57.83601346089339
 20
18.579329302289612
 30
0.0
 11
-59.550348062297608
 21
19.60940545210973
 31
0.0
  0
LINE
  5
1FD
  8
0
 62
     0
 10
-47.550005852468431
 20
12.39887240336911
 30
0.0
 11
-45.83567125106422
 21
11.368796253548989
 31
0.0
  0
LINE
  5
1FE
  8
0
 62
     0
 10
-57.83601346089339
 20
18.579329302289612
 30
0.0
 11
-47.550005852468431
 21
12.39887240336911
 31
0.0
  0
INSERT
  5
1FF
  8
0
 62
     0
  2
_OBLIQUE
 10
-57.83601346089339
 20
18.579329302289612
 30
0.0
 41
2.0
 42
2.0
 43
2.0
 50
328.9999999999996
  0
INSERT
  5
200
  8
0
 62
     0
  2
_OBLIQUE
 10
-47.550005852468431
 20
12.39887240336911
 30
0.0
 41
2.0
 42
2.0
 43
2.0
 50
148.9999999999996
  0
INSERT
  5
201
  8
0
  2
*U18
 10
0.0
 20
0.0
 30
0.0
  0
POINT
  5
202
  8
DEFPOINTS
 62
     0
 10
-65.286007608425464
 20
6.1804568989207089
 30
0.0
  0
POINT
  5
203
  8
DEFPOINTS
 62
     0
 10
-55.000000000000519
 20
0.0000000000002061
 30
0.0
  0
POINT
  5
204
  8
DEFPOINTS
 62
     0
 10
-47.550005852468431
 20
12.39887240336911
 30
0.0
  0
ENDBLK
  5
C3
  8
0
  0
BLOCK
  8
0
  2
DIMBLOCK3-REF__LEVEL
 70
     0
 10
0.0
 20
0.0
 30
0.0
  3
DIMBLOCK3-REF__LEVEL
  1

  0
LINE
  5
1EF
  8
0
 62
     0
 10
-71.960397372155796
 20
1.337676573342008
 30
0.0
 11
-81.775674565495422
 21
9.5736720461761422
 31
0.0
  0
LINE
  5
1F0
  8
0
 62
     0
 10
-66.818096494663422
 20
7.4660321182937919
 30
0.0
 11
-76.633373688003061
 21
15.702027591127949
 31
0.0
  0
LINE
  5
1F1
  8
0
 62
     0
 10
-80.243585679257464
 20
8.2880968268030557
 30
0.0
 11
-81.52916089863055
 21
6.7560079405651052
 31
0.0
  0
LINE
  5
1F2
  8
0
 62
     0
 10
-75.101284801765104
 20
14.416452371754859
 30
0.0
 11
-73.815709582392032
 21
15.94854125799281
 31
0.0
  0
LINE
  5
1F3
  8
0
 62
     0
 10
-80.243585679257464
 20
8.2880968268030557
 30
0.0
 11
-75.101284801765104
 21
14.416452371754859
 31
0.0
  0
INSERT
  5
1F4
  8
0
 62
     0
  2
_OBLIQUE
 10
-80.243585679257464
 20
8.2880968268030557
 30
0.0
 41
2.0
 42
2.0
 43
2.0
 50
49.999999999999673
  0
INSERT
  5
1F5
  8
0
 62
     0
  2
_OBLIQUE
 10
-75.101284801765104
 20
14.416452371754859
 30
0.0
 41
2.0
 42
2.0
 43
2.0
 50
229.99999999999969
  0
INSERT
  5
1F6
  8
0
  2
*U17
 10
0.0
 20
0.0
 30
0.0
  0
POINT
  5
1F7
  8
DEFPOINTS
 62
     0
 10
-70.428308485917853
 20
0.052101353968915
 30
0.0
  0
POINT
  5
1F8
  8
DEFPOINTS
 62
     0
 10
-65.286007608425479
 20
6.1804568989207063
 30
0.0
  0
POINT
  5
1F9
  8
DEFPOINTS
 62
     0
 10
-75.101284801765104
 20
14.416452371754859
 30
0.0
  0
ENDBLK
  5
E0
  8
0
  0
BLOCK
  8
0
  2
DIMBLOCK4-REF__LEVEL
 70
     0
 10
0.0
 20
0.0
 30
0.0
  3
DIMBLOCK4-REF__LEVEL
  1

  0
LINE
  5
1E6
  8
0
 62
     0
 10
-55.000000000000163
 20
26.267097606954909
 30
0.0
 11
-55.000000000000163
 21
24.85288404458176
 31
0.0
  0
LINE
  5
1E7
  8
0
 62
     0
 10
-0.0000000000000001
 20
26.267097606954859
 30
0.0
 11
-0.0000000000000002
 21
24.85288404458176
 31
0.0
  0
LINE
  5
1E8
  8
0
 62
     0
 10
-55.000000000000163
 20
26.85288404458176
 30
0.0
 11
-0.0000000000000001
 21
26.85288404458176
 31
0.0
  0
INSERT
  5
1E9
  8
0
 62
     0
  2
_OBLIQUE
 10
-55.000000000000163
 20
26.85288404458176
 30
0.0
 41
2.0
 42
2.0
 43
2.0
 50
180.0
  0
INSERT
  5
1EA
  8
0
 62
     0
  2
_OBLIQUE
 10
-0.0000000000000001
 20
26.85288404458176
 30
0.0
 41
2.0
 42
2.0
 43
2.0
  0
INSERT
  5
1EB
  8
0
  2
*U16
 10
0.0
 20
0.0
 30
0.0
  0
POINT
  5
1EC
  8
DEFPOINTS
 62
     0
 10
-55.000000000000163
 20
28.267097606954909
 30
0.0
  0
POINT
  5
1ED
  8
DEFPOINTS
 62
     0
 10
0.0
 20
28.267097606954859
 30
0.0
  0
POINT
  5
1EE
  8
DEFPOINTS
 62
     0
 10
-0.0000000000000001
 20
26.85288404458176
 30
0.0
  0
ENDBLK
  5
FC
  8
0
  0
BLOCK
  8
0
  2
DIMBLOCK5-REF__LEVEL
 70
     0
 10
0.0
 20
0.0
 30
0.0
  3
DIMBLOCK5-REF__LEVEL
  1

  0
LINE
  5
1DD
  8
0
 62
     0
 10
30.02168486980311
 20
-55.000000000000341
 30
0.0
 11
31.435898432176291
 21
-55.000000000000341
 31
0.0
  0
LINE
  5
1DE
  8
0
 62
     0
 10
30.021684869803209
 20
-0.0000000000000006
 30
0.0
 11
31.435898432176309
 21
-0.000000000000001
 31
0.0
  0
LINE
  5
1DF
  8
0
 62
     0
 10
29.435898432176302
 20
-55.000000000000341
 30
0.0
 11
29.435898432176309
 21
-0.0000000000000004
 31
0.0
  0
INSERT
  5
1E0
  8
0
 62
     0
  2
_OBLIQUE
 10
29.435898432176302
 20
-55.000000000000341
 30
0.0
 41
2.0
 42
2.0
 43
2.0
 50
270.0
  0
INSERT
  5
1E1
  8
0
 62
     0
  2
_OBLIQUE
 10
29.435898432176309
 20
-0.0000000000000004
 30
0.0
 41
2.0
 42
2.0
 43
2.0
 50
90.0
  0
INSERT
  5
1E2
  8
0
  2
*U15
 10
0.0
 20
0.0
 30
0.0
  0
POINT
  5
1E3
  8
DEFPOINTS
 62
     0
 10
28.02168486980311
 20
-55.000000000000341
 30
0.0
  0
POINT
  5
1E4
  8
DEFPOINTS
 62
     0
 10
28.021684869803209
 20
0.0
 30
0.0
  0
POINT
  5
1E5
  8
DEFPOINTS
 62
     0
 10
29.435898432176309
 20
-0.0000000000000004
 30
0.0
  0
ENDBLK
  5
116
  8
0
  0
BLOCK
  8
0
  2
DIMBLOCK6-REF__LEVEL
 70
     0
 10
0.0
 20
0.0
 30
0.0
  3
DIMBLOCK6-REF__LEVEL
  1

  0
LINE
  5
1D3
  8
0
 62
     0
 10
-1.0300761498201181
 20
-53.285665398596187
 30
0.0
 11
-3.5261908364369461
 21
-49.131432940066048
 31
0.0
  0
LINE
  5
1D4
  8
0
 62
     0
 10
-1.479987532269285
 20
-71.713883705290783
 30
0.0
 11
-8.2567739024769402
 21
-77.400282649099324
 31
0.0
  0
ARC
  5
1D5
  8
0
 62
     0
 10
6.180456898920454
 20
-65.286007608425336
 30
0.0
 40
16.846466325916751
 50
121.0000000000002
 51
220.0000000000004
  0
INSERT
  5
1D6
  8
0
 62
     0
  2
_OBLIQUE
 10
-2.4961146866168278
 20
-50.845767541470273
 30
0.0
 41
2.0
 42
2.0
 43
2.0
 50
31.000000000000259
  0
INSERT
  5
1D7
  8
0
 62
     0
  2
_OBLIQUE
 10
-6.7246850162389942
 20
-76.114707429726224
 30
0.0
 41
2.0
 42
2.0
 43
2.0
 50
310.0000000000004
  0
INSERT
  5
1D8
  8
0
  2
*U14
 10
0.0
 20
0.0
 30
0.0
  0
POINT
  5
1D9
  8
DEFPOINTS
 62
     0
 10
6.180456898920454
 20
-65.286007608425336
 30
0.0
  0
POINT
  5
1DA
  8
DEFPOINTS
 62
     0
 10
-0.0000000000000018
 20
-55.000000000000412
 30
0.0
  0
POINT
  5
1DB
  8
DEFPOINTS
 62
     0
 10
0.052101353968661
 20
-70.428308485917697
 30
0.0
  0
POINT
  5
1DC
  8
DEFPOINTS
 62
     0
 10
-8.9610467359929675
 20
-57.901002845789712
 30
0.0
  0
ENDBLK
  5
132
  8
0
  0
BLOCK
  8
0
  2
DIMBLOCK7-REF__LEVEL
 70
     0
 10
0.0
 20
0.0
 30
0.0
  3
DIMBLOCK7-REF__LEVEL
  1

  0
LINE
  5
1C9
  8
0
 62
     0
 10
3.9284270230556042
 20
-61.538000492383112
 30
0.0
 11
1.8682747234154391
 21
-58.109331289574783
 31
0.0
  0
LINE
  5
1CA
  8
0
 62
     0
 10
-0.0000000000002487
 20
-47.372550274575602
 30
0.0
 11
-0.0000000000002416
 21
-51.372550274575481
 31
0.0
  0
ARC
  5
1CB
  8
0
 62
     0
 10
-0.0000000000002345
 20
-55.000000000000021
 30
0.0
 40
5.6274497254245377
 50
301.00000000000023
 51
90.000000000000099
  0
INSERT
  5
1CC
  8
0
 62
     0
  2
_OBLIQUE
 10
2.898350873235553
 20
-59.823665890979001
 30
0.0
 41
2.0
 42
2.0
 43
2.0
 50
211.0000000000002
  0
INSERT
  5
1CD
  8
0
 62
     0
  2
_OBLIQUE
 10
-0.0000000000002434
 20
-49.372550274575481
 30
0.0
 41
2.0
 42
2.0
 43
2.0
 50
180.00000000000011
  0
INSERT
  5
1CE
  8
0
  2
*U13
 10
0.0
 20
0.0
 30
0.0
  0
POINT
  5
1CF
  8
DEFPOINTS
 62
     0
 10
-0.0000000000002345
 20
-55.000000000000021
 30
0.0
  0
POINT
  5
1D0
  8
DEFPOINTS
 62
     0
 10
4.9585031728757212
 20
-63.25233509378733
 30
0.0
  0
POINT
  5
1D1
  8
DEFPOINTS
 62
     0
 10
-0.0000000000002505
 20
-45.372550274575609
 30
0.0
  0
POINT
  5
1D2
  8
DEFPOINTS
 62
     0
 10
5.5529509129462014
 20
-55.912648108850362
 30
0.0
  0
ENDBLK
  5
14F
  8
0
  0
BLOCK
  8
0
  2
DIMBLOCK8-REF__LEVEL
 70
     0
 10
0.0
 20
0.0
 30
0.0
  3
DIMBLOCK8-REF__LEVEL
  1

  0
LINE
  5
1BE
  8
0
 62
     0
 10
7.8947915003246747
 20
-64.255931458605204
 30
0.0
 11
20.293663903693609
 21
-56.805937311073158
 31
0.0
  0
LINE
  5
1BF
  8
0
 62
     0
 10
1.714334601404218
 20
-53.969923850180287
 30
0.0
 11
14.113207004773139
 21
-46.519929702648227
 31
0.0
  0
LINE
  5
1C0
  8
0
 62
     0
 10
18.579329302289381
 20
-57.836013460893263
 30
0.0
 11
19.609405452109499
 21
-59.550348062297488
 31
0.0
  0
LINE
  5
1C1
  8
0
 62
     0
 10
12.398872403368919
 20
-47.550005852468338
 30
0.0
 11
11.36879625354881
 21
-45.83567125106412
 31
0.0
  0
LINE
  5
1C2
  8
0
 62
     0
 10
18.579329302289381
 20
-57.836013460893263
 30
0.0
 11
12.398872403368919
 21
-47.550005852468338
 31
0.0
  0
INSERT
  5
1C3
  8
0
 62
     0
  2
_OBLIQUE
 10
18.579329302289381
 20
-57.836013460893263
 30
0.0
 41
2.0
 42
2.0
 43
2.0
 50
121.0000000000002
  0
INSERT
  5
1C4
  8
0
 62
     0
  2
_OBLIQUE
 10
12.398872403368919
 20
-47.550005852468338
 30
0.0
 41
2.0
 42
2.0
 43
2.0
 50
301.00000000000028
  0
INSERT
  5
1C5
  8
0
  2
*U12
 10
0.0
 20
0.0
 30
0.0
  0
POINT
  5
1C6
  8
DEFPOINTS
 62
     0
 10
6.1804568989204567
 20
-65.286007608425336
 30
0.0
  0
POINT
  5
1C7
  8
DEFPOINTS
 62
     0
 10
-0.0000000000000036
 20
-55.000000000000412
 30
0.0
  0
POINT
  5
1C8
  8
DEFPOINTS
 62
     0
 10
12.398872403368919
 20
-47.550005852468338
 30
0.0
  0
ENDBLK
  5
16A
  8
0
  0
BLOCK
  8
0
  2
DIMBLOCK9-REF__LEVEL
 70
     0
 10
0.0
 20
0.0
 30
0.0
  3
DIMBLOCK9-REF__LEVEL
  1

  0
LINE
  5
1B3
  8
0
 62
     0
 10
1.3376765733417519
 20
-71.96039737215564
 30
0.0
 11
9.5736720461759077
 21
-81.775674565495265
 31
0.0
  0
LINE
  5
1B4
  8
0
 62
     0
 10
7.4660321182935467
 20
-66.81809649466328
 30
0.0
 11
15.702027591127701
 21
-76.633373688002905
 31
0.0
  0
LINE
  5
1B5
  8
0
 62
     0
 10
8.2880968268028212
 20
-80.243585679257293
 30
0.0
 11
6.756007940564877
 21
-81.529160898630394
 31
0.0
  0
LINE
  5
1B6
  8
0
 62
     0
 10
14.416452371754611
 20
-75.101284801764962
 30
0.0
 11
15.948541257992559
 21
-73.815709582391861
 31
0.0
  0
LINE
  5
1B7
  8
0
 62
     0
 10
8.2880968268028212
 20
-80.243585679257293
 30
0.0
 11
14.416452371754611
 21
-75.101284801764962
 31
0.0
  0
INSERT
  5
1B8
  8
0
 62
     0
  2
_OBLIQUE
 10
8.2880968268028212
 20
-80.243585679257293
 30
0.0
 41
2.0
 42
2.0
 43
2.0
 50
40.000000000000327
  0
INSERT
  5
1B9
  8
0
 62
     0
  2
_OBLIQUE
 10
14.416452371754611
 20
-75.101284801764962
 30
0.0
 41
2.0
 42
2.0
 43
2.0
 50
220.0000000000004
  0
INSERT
  5
1BA
  8
0
  2
*U11
 10
0.0
 20
0.0
 30
0.0
  0
POINT
  5
1BB
  8
DEFPOINTS
 62
     0
 10
0.0521013539686592
 20
-70.428308485917682
 30
0.0
  0
POINT
  5
1BC
  8
DEFPOINTS
 62
     0
 10
6.180456898920454
 20
-65.286007608425336
 30
0.0
  0
POINT
  5
1BD
  8
DEFPOINTS
 62
     0
 10
14.416452371754611
 20
-75.101284801764962
 30
0.0
  0
ENDBLK
  5
186
  8
0
  0
BLOCK
  8
0
  2
*U11
 70
     1
 10
0.0
 20
0.0
 30
0.0
  3
*U11
  1

  0
TEXT
  5
2BC
  8
0
 62
     0
 10
6.9692161163342821
 20
-78.665876890914575
 30
0.0
 40
2.9505988023952101
  1
8.00
 50
40.000000000000377
  7
ARIAL
  0
ENDBLK
  5
2BE
  8
0
  0
BLOCK
  8
0
  2
*U12
 70
     1
 10
0.0
 20
0.0
 30
0.0
  3
*U12
  1

  0
TEXT
  5
2C0
  8
0
 62
     0
 10
14.53063922796068
 20
-47.105234046438149
 30
0.0
 40
2.9505988023952101
  1
12.00
 50
301.00000000000028
  7
ARIAL
  0
ENDBLK
  5
2C2
  8
0
  0
BLOCK
  8
0
  2
*U13
 70
     1
 10
0.0
 20
0.0
 30
0.0
  3
*U13
  1

  0
TEXT
  5
2C4
  8
0
 62
     0
 10
5.4760947415493169
 20
-45.993534189787823
 30
0.0
 40
2.9505988023952101
  1
149.00°
 50
285.50000000000023
  7
ARIAL
  0
ENDBLK
  5
2C6
  8
0
  0
BLOCK
  8
0
  2
*U14
 70
     1
 10
0.0
 20
0.0
 30
0.0
  3
*U14
  1

  0
TEXT
  5
2C8
  8
0
 62
     0
 10
-13.44191910843033
 20
-68.015192113831176
 30
0.0
 40
2.9505988023952101
  1
99.00°
 50
80.500000000000355
  7
ARIAL
  0
ENDBLK
  5
2CA
  8
0
  0
BLOCK
  8
0
  2
*U15
 70
     1
 10
0.0
 20
0.0
 30
0.0
  3
*U15
  1

  0
TEXT
  5
2CC
  8
0
 62
     0
 10
27.379543202662621
 20
-32.644427379892491
 30
0.0
 40
2.9505988023952101
  1
55.00
 50
90.0
  7
ARIAL
  0
ENDBLK
  5
2CE
  8
0
  0
BLOCK
  8
0
  2
*U16
 70
     1
 10
0.0
 20
0.0
 30
0.0
  3
*U16
  1

  0
TEXT
  5
2D0
  8
0
 62
     0
 10
-32.64442737989242
 20
28.909239274095452
 30
0.0
 40
2.9505988023952101
  1
55.00
  7
ARIAL
  0
ENDBLK
  5
2D2
  8
0
  0
BLOCK
  8
0
  2
*U17
 70
     1
 10
0.0
 20
0.0
 30
0.0
  3
*U17
  1

  0
TEXT
  5
2D4
  8
0
 62
     0
 10
-81.816395884209939
 20
9.6128154416255871
 30
0.0
 40
2.9505988023952101
  1
8.00
 50
49.99999999999968
  7
ARIAL
  0
ENDBLK
  5
2D6
  8
0
  0
BLOCK
  8
0
  2
*U18
 70
     1
 10
0.0
 20
0.0
 30
0.0
  3
*U18
  1

  0
TEXT
  5
2D8
  8
0
 62
     0
 10
-56.162582789443633
 20
19.972843400431671
 30
0.0
 40
2.9505988023952101
  1
12.00
 50
328.9999999999996
  7
ARIAL
  0
ENDBLK
  5
2DA
  8
0
  0
BLOCK
  8
0
  2
*U19
 70
     1
 10
0.0
 20
0.0
 30
0.0
  3
*U19
  1

  0
TEXT
  5
2DC
  8
0
 62
     0
 10
-68.693985128691949
 20
-9.3856119993997886
 30
0.0
 40
2.9505988023952101
  1
99.00°
 50
9.4999999999996092
  7
ARIAL
  0
ENDBLK
  5
2DE
  8
0
  0
ENDSEC
  0
SECTION
  2
ENTITIES
  0
LINE
  5
88
  8
0
 10
-55.000000000000519
 20
0.0000000000002037
 30
0.0
 11
-49.960362344332317
 21
0.0000000000002037
 31
0.0
1001
REVIT
1002
{
1070
     1
1000
324185
1002
}
1002
{
1070
     2
1000
-2002000
1002
}
1002
{
1070
     3
1000
206785
1002
}
  0
LINE
  5
89
  8
0
 10
-0.0000000000000028
 20
-55.000000000000412
 30
0.0
 11
0.000000000000006
 21
-50.000000000000419
 31
0.0
1001
REVIT
1002
{
1070
     1
1000
324187
1002
}
1002
{
1070
     2
1000
-2002000
1002
}
1002
{
1070
     3
1000
206785
1002
}
  0
LINE
  5
8A
  8
0
 10
0.0000000000000868
 20
0.0000000000000423
 30
0.0
 11
0.000000000000006
 21
-50.000000000000419
 31
0.0
1001
REVIT
1002
{
1070
     1
1000
324169
1002
}
1002
{
1070
     2
1000
-2002000
1002
}
1002
{
1070
     3
1000
206783
1002
}
  0
LINE
  5
8B
  8
0
 10
-55.000000000000519
 20
0.0000000000002027
 30
0.0
 11
-65.286007608425479
 21
6.1804568989207054
 31
0.0
1001
REVIT
1002
{
1070
     1
1000
324172
1002
}
1002
{
1070
     2
1000
-2002000
1002
}
1002
{
1070
     3
1000
206783
1002
}
  0
LINE
  5
8C
  8
0
 10
-65.286007608425479
 20
6.1804568989207072
 30
0.0
 11
-70.428308485917853
 21
0.0521013539689202
 31
0.0
1001
REVIT
1002
{
1070
     1
1000
324173
1002
}
1002
{
1070
     2
1000
-2002000
1002
}
1002
{
1070
     3
1000
206783
1002
}
  0
LINE
  5
8D
  8
0
 10
-0.0000000000000022
 20
-55.000000000000412
 30
0.0
 11
6.180456898920454
 21
-65.286007608425336
 31
0.0
1001
REVIT
1002
{
1070
     1
1000
324179
1002
}
1002
{
1070
     2
1000
-2002000
1002
}
1002
{
1070
     3
1000
206783
1002
}
  0
LINE
  5
8E
  8
0
 10
6.1804568989204558
 20
-65.286007608425336
 30
0.0
 11
0.0521013539686621
 21
-70.428308485917697
 31
0.0
1001
REVIT
1002
{
1070
     1
1000
324180
1002
}
1002
{
1070
     2
1000
-2002000
1002
}
1002
{
1070
     3
1000
206783
1002
}
  0
LINE
  5
8F
  8
0
 10
-49.960362344332317
 20
0.0000000000002037
 30
0.0
 11
0.0000000000000846
 21
0.0000000000000423
 31
0.0
1001
REVIT
1002
{
1070
     1
1000
324186
1002
}
1002
{
1070
     2
1000
-2002000
1002
}
1002
{
1070
     3
1000
206783
1002
}
  0
ENDSEC
  0
EOF
