  0
SECTION
  2
HEADER
  9
$ACADVER
  1
AC1009
  9
$INSBASE
 10
0.0
 20
0.0
 30
0.0
  9
$EXTMIN
 10
-32.933982670229888
 20
-26.949365398668391
 30
0.0
  9
$EXTMAX
 10
86.747721837090637
 20
85.727172893710943
 30
0.0
  9
$LIMMIN
 10
0.0
 20
0.0
  9
$LIMMAX
 10
12.0
 20
9.0
  9
$ORTHOMODE
 70
     0
  9
$REGENMODE
 70
     1
  9
$FILLMODE
 70
     1
  9
$QTEXTMODE
 70
     0
  9
$MIRRTEXT
 70
     0
  9
$DRAGMODE
 70
     2
  9
$LTSCALE
 40
1.0
  9
$OSMODE
 70
   127
  9
$ATTMODE
 70
     1
  9
$TEXTSIZE
 40
0.2
  9
$TRACEWID
 40
0.05
  9
$TEXTSTYLE
  7
STANDARD
  9
$CLAYER
  8
0
  9
$CELTYPE
  6
BYLAYER
  9
$CECOLOR
 62
   256
  9
$DIMSCALE
 40
1.0
  9
$DIMASZ
 40
0.18
  9
$DIMEXO
 40
0.0625
  9
$DIMDLI
 40
0.38
  9
$DIMRND
 40
0.0
  9
$DIMDLE
 40
0.0
  9
$DIMEXE
 40
0.18
  9
$DIMTP
 40
0.0
  9
$DIMTM
 40
0.0
  9
$DIMTXT
 40
0.18
  9
$DIMCEN
 40
0.09
  9
$DIMTSZ
 40
0.0
  9
$DIMTOL
 70
     0
  9
$DIMLIM
 70
     0
  9
$DIMTIH
 70
     1
  9
$DIMTOH
 70
     1
  9
$DIMSE1
 70
     0
  9
$DIMSE2
 70
     0
  9
$DIMTAD
 70
     0
  9
$DIMZIN
 70
     0
  9
$DIMBLK
  1

  9
$DIMASO
 70
     1
  9
$DIMSHO
 70
     1
  9
$DIMPOST
  1

  9
$DIMAPOST
  1

  9
$DIMALT
 70
     0
  9
$DIMALTD
 70
     2
  9
$DIMALTF
 40
25.399999999999999
  9
$DIMLFAC
 40
1.0
  9
$DIMTOFL
 70
     0
  9
$DIMTVP
 40
0.0
  9
$DIMTIX
 70
     0
  9
$DIMSOXD
 70
     0
  9
$DIMSAH
 70
     0
  9
$DIMBLK1
  1

  9
$DIMBLK2
  1

  9
$DIMSTYLE
  2
STANDARD
  9
$DIMCLRD
 70
     0
  9
$DIMCLRE
 70
     0
  9
$DIMCLRT
 70
     0
  9
$DIMTFAC
 40
1.0
  9
$DIMGAP
 40
0.09
  9
$LUNITS
 70
     2
  9
$LUPREC
 70
     4
  9
$SKETCHINC
 40
0.1
  9
$FILLETRAD
 40
0.0
  9
$AUNITS
 70
     0
  9
$AUPREC
 70
     0
  9
$MENU
  1
.
  9
$ELEVATION
 40
0.0
  9
$PELEVATION
 40
0.0
  9
$THICKNESS
 40
0.0
  9
$LIMCHECK
 70
     0
  9
$BLIPMODE
 70
     0
  9
$CHAMFERA
 40
0.0
  9
$CHAMFERB
 40
0.0
  9
$SKPOLY
 70
     0
  9
$TDCREATE
 40
2457375.563777905
  9
$TDUPDATE
 40
2457378.9875606601
  9
$TDINDWG
 40
0.0001078588
  9
$TDUSRTIMER
 40
0.0001078588
  9
$USRTIMER
 70
     1
  9
$ANGBASE
 50
0.0
  9
$ANGDIR
 70
     0
  9
$PDMODE
 70
     0
  9
$PDSIZE
 40
0.0
  9
$PLINEWID
 40
0.0
  9
$COORDS
 70
     2
  9
$SPLFRAME
 70
     0
  9
$SPLINETYPE
 70
     6
  9
$SPLINESEGS
 70
     8
  9
$ATTDIA
 70
     0
  9
$ATTREQ
 70
     0
  9
$HANDLING
 70
     1
  9
$HANDSEED
  5
3AE
  9
$SURFTAB1
 70
     6
  9
$SURFTAB2
 70
     6
  9
$SURFTYPE
 70
     6
  9
$SURFU
 70
     6
  9
$SURFV
 70
     6
  9
$UCSNAME
  2

  9
$UCSORG
 10
0.0
 20
0.0
 30
0.0
  9
$UCSXDIR
 10
1.0
 20
0.0
 30
0.0
  9
$UCSYDIR
 10
0.0
 20
1.0
 30
0.0
  9
$PUCSNAME
  2

  9
$PUCSORG
 10
0.0
 20
0.0
 30
0.0
  9
$PUCSXDIR
 10
1.0
 20
0.0
 30
0.0
  9
$PUCSYDIR
 10
0.0
 20
1.0
 30
0.0
  9
$USERI1
 70
     0
  9
$USERI2
 70
     0
  9
$USERI3
 70
     0
  9
$USERI4
 70
     0
  9
$USERI5
 70
     0
  9
$USERR1
 40
0.0
  9
$USERR2
 40
0.0
  9
$USERR3
 40
0.0
  9
$USERR4
 40
0.0
  9
$USERR5
 40
0.0
  9
$WORLDVIEW
 70
     1
  9
$SHADEDGE
 70
     3
  9
$SHADEDIF
 70
    70
  9
$TILEMODE
 70
     1
  9
$MAXACTVP
 70
    64
  9
$PLIMCHECK
 70
     0
  9
$PEXTMIN
 10
0.0
 20
0.0
 30
0.0
  9
$PEXTMAX
 10
0.0
 20
0.0
 30
0.0
  9
$PLIMMIN
 10
0.0
 20
0.0
  9
$PLIMMAX
 10
12.0
 20
9.0
  9
$UNITMODE
 70
     0
  9
$VISRETAIN
 70
     1
  9
$PLINEGEN
 70
     0
  9
$PSLTSCALE
 70
     1
  0
ENDSEC
  0
SECTION
  2
TABLES
  0
TABLE
  2
VPORT
 70
     1
  0
VPORT
  2
*ACTIVE
 70
     0
 10
0.0
 20
0.0
 11
1.0
 21
1.0
 12
91.852424617280406
 22
28.869291476548291
 13
0.0
 23
0.0
 14
1.0
 24
1.0
 15
0.0
 25
0.0
 16
0.0
 26
0.0
 36
1.0
 17
0.0
 27
0.0
 37
0.0
 40
92.648194657947187
 41
1.7244755244755241
 42
50.0
 43
0.0
 44
0.0
 50
0.0
 51
0.0
 71
     0
 72
  1000
 73
     1
 74
     3
 75
     0
 76
     0
 77
     0
 78
     0
  0
ENDTAB
  0
TABLE
  2
LTYPE
 70
     1
  0
LTYPE
  2
CONTINUOUS
 70
     0
  3
Solid line
 72
    65
 73
     0
 40
0.0
  0
ENDTAB
  0
TABLE
  2
LAYER
 70
     5
  0
LAYER
  2
0
 70
     0
 62
     7
  6
CONTINUOUS
  0
LAYER
  2
DEFPOINTS
 70
     0
 62
     7
  6
CONTINUOUS
  0
ENDTAB
  0
TABLE
  2
STYLE
 70
     3
  0
STYLE
  2
STANDARD
 70
     0
 40
0.0
 41
1.0
 50
0.0
 71
     0
 42
0.2
  3
txt
  4

  0
STYLE
  2
ARIAL
 70
     0
 40
2.9505988023952101
 41
1.0
 50
0.0
 71
     0
 42
0.2
  3
txt
  4

  0
ENDTAB
  0
TABLE
  2
VIEW
 70
     0
  0
ENDTAB
  0
TABLE
  2
UCS
 70
     0
  0
ENDTAB
  0
TABLE
  2
APPID
 70
     5
  0
APPID
  2
ACAD
 70
     0
  0
APPID
  2
ACADANNOTATIVE
 70
     0
  0
APPID
  2
REVIT
 70
     0
  0
APPID
  2
ACAD_NAV_VCDISPLAY
 70
     0
  0
APPID
  2
ACAD_MLEADERVER
 70
     0
  0
ENDTAB
  0
TABLE
  2
DIMSTYLE
 70
     4
  0
DIMSTYLE
  2
STANDARD
 70
     0
  3

  4

  5

  6

  7

 40
1.0
 41
0.18
 42
0.0625
 43
0.38
 44
0.18
 45
0.0
 46
0.0
 47
0.0
 48
0.0
140
0.18
141
0.09
142
0.0
143
25.399999999999999
144
1.0
145
0.0
146
1.0
147
0.09
 71
     0
 72
     0
 73
     1
 74
     1
 75
     0
 76
     0
 77
     0
 78
     0
170
     0
171
     2
172
     0
173
     0
174
     0
175
     0
176
     0
177
     0
178
     0
  0
DIMSTYLE
  2
ANGULAR
 70
     0
  3
<>
  4

  5

  6
OBLIQUE
  7
OBLIQUE
 40
304.80000000000001
 41
0.0065616797900262
 42
0.0065616797900262
 43
0.38
 44
0.0065616797900262
 45
0.0
 46
0.0
 47
0.0
 48
0.0
140
3.0
141
0.09
142
0.0
143
25.399999999999999
144
1.0
145
1.0
146
1.0
147
0.0065616797900262
 71
     0
 72
     0
 73
     0
 74
     0
 75
     0
 76
     0
 77
     1
 78
     0
170
     0
171
     2
172
     1
173
     1
174
     1
175
     0
176
     0
177
     0
178
     0
  0
DIMSTYLE
  2
LINEAR
 70
     0
  3
<>
  4

  5

  6
OBLIQUE
  7
OBLIQUE
 40
304.80000000000001
 41
0.0065616797900262
 42
0.0065616797900262
 43
0.38
 44
0.0065616797900262
 45
0.01
 46
0.0
 47
0.0
 48
0.0
140
3.0
141
0.09
142
0.0
143
25.399999999999999
144
1.0
145
1.0
146
1.0
147
0.0065616797900262
 71
     0
 72
     0
 73
     0
 74
     0
 75
     0
 76
     0
 77
     1
 78
     0
170
     0
171
     2
172
     1
173
     1
174
     1
175
     0
176
     0
177
     0
178
     0
  0
ENDTAB
  0
ENDSEC
  0
SECTION
  2
BLOCKS
  0
BLOCK
  8
0
  2
$MODEL_SPACE
 70
     0
 10
0.0
 20
0.0
 30
0.0
  3
$MODEL_SPACE
  1

  0
ENDBLK
  5
72
  8
0
  0
BLOCK
 67
     1
  8
0
  2
$PAPER_SPACE
 70
     0
 10
0.0
 20
0.0
 30
0.0
  3
$PAPER_SPACE
  1

  0
ENDBLK
  5
76
 67
     1
  8
0
  0
BLOCK
  8
0
  2
_OBLIQUE
 70
     0
 10
0.0
 20
0.0
 30
0.0
  3
_OBLIQUE
  1

  0
LINE
  5
A4
  8
0
  6
BYBLOCK
 62
     0
 10
-0.5
 20
-0.5
 30
0.0
 11
0.5
 21
0.5
 31
0.0
  0
ENDBLK
  5
A6
  8
0
  0
BLOCK
  8
0
  2
DIMBLOCK1-REF__LEVEL
 70
     0
 10
0.0
 20
0.0
 30
0.0
  3
DIMBLOCK1-REF__LEVEL
  1

  0
LINE
  5
2C0
  8
0
 62
     0
 10
-1.479987532269518
 20
71.713883705290442
 30
0.0
 11
-8.2567739024772067
 21
77.400282649098969
 31
0.0
  0
LINE
  5
2C1
  8
0
 62
     0
 10
-1.0300761498199189
 20
53.285665398596471
 30
0.0
 11
-3.5261908364371091
 21
49.1314329400657
 31
0.0
  0
ARC
  5
2C2
  8
0
 62
     0
 10
6.1804568989202471
 20
65.286007608425024
 30
0.0
 40
16.846466325916769
 50
139.9999999999998
 51
239.0
  0
INSERT
  5
2C3
  8
0
 62
     0
  2
_OBLIQUE
 10
-6.72468501623925
 20
76.114707429725868
 30
0.0
 41
2.0
 42
2.0
 43
2.0
 50
49.999999999999837
  0
INSERT
  5
2C4
  8
0
 62
     0
  2
_OBLIQUE
 10
-2.4961146866170001
 20
50.845767541469932
 30
0.0
 41
2.0
 42
2.0
 43
2.0
 50
329.0
  0
INSERT
  5
2C5
  8
0
  2
*U29
 10
0.0
 20
0.0
 30
0.0
  0
POINT
  5
2C6
  8
DEFPOINTS
 62
     0
 10
6.1804568989202471
 20
65.286007608425024
 30
0.0
  0
POINT
  5
2C7
  8
DEFPOINTS
 62
     0
 10
0.0521013539684336
 20
70.428308485917356
 30
0.0
  0
POINT
  5
2C8
  8
DEFPOINTS
 62
     0
 10
0.0000000000001918
 20
55.000000000000689
 30
0.0
  0
POINT
  5
2C9
  8
DEFPOINTS
 62
     0
 10
-10.540438421623559
 20
67.339075398261471
 30
0.0
  0
ENDBLK
  5
A1
  8
0
  0
BLOCK
  8
0
  2
DIMBLOCK2-REF__LEVEL
 70
     0
 10
0.0
 20
0.0
 30
0.0
  3
DIMBLOCK2-REF__LEVEL
  1

  0
LINE
  5
2B6
  8
0
 62
     0
 10
0.0
 20
43.342372177046229
 30
0.0
 11
0.0
 21
47.342372177046229
 31
0.0
  0
LINE
  5
2B7
  8
0
 62
     0
 10
6.0041221919521979
 20
64.992537373591816
 30
0.0
 11
3.943969892311967
 21
61.563868170783358
 31
0.0
  0
ARC
  5
2B8
  8
0
 62
     0
 10
0.0
 20
55.000000000000362
 30
0.0
 40
9.6576278229541366
 50
270.0
 51
58.99999999999995
  0
INSERT
  5
2B9
  8
0
 62
     0
  2
_OBLIQUE
 10
-0.0000000000000018
 20
45.342372177046229
 30
0.0
 41
2.0
 42
2.0
 43
2.0
 50
180.0
  0
INSERT
  5
2BA
  8
0
 62
     0
  2
_OBLIQUE
 10
4.9740460421320867
 20
63.278202772187583
 30
0.0
 41
2.0
 42
2.0
 43
2.0
 50
148.9999999999998
  0
INSERT
  5
2BB
  8
0
  2
*U28
 10
0.0
 20
0.0
 30
0.0
  0
POINT
  5
2BC
  8
DEFPOINTS
 62
     0
 10
0.0
 20
55.000000000000362
 30
0.0
  0
POINT
  5
2BD
  8
DEFPOINTS
 62
     0
 10
-0.0000000000000018
 20
41.342372177046222
 30
0.0
  0
POINT
  5
2BE
  8
DEFPOINTS
 62
     0
 10
7.0341983417723091
 20
66.706871974996034
 30
0.0
  0
POINT
  5
2BF
  8
DEFPOINTS
 62
     0
 10
7.3619315940776069
 20
48.749260974027521
 30
0.0
  0
ENDBLK
  5
C5
  8
0
  0
BLOCK
  8
0
  2
DIMBLOCK3-REF__LEVEL
 70
     0
 10
0.0
 20
0.0
 30
0.0
  3
DIMBLOCK3-REF__LEVEL
  1

  0
LINE
  5
2AB
  8
0
 62
     0
 10
7.8947915003244686
 20
64.255931458604906
 30
0.0
 11
22.360108288861081
 21
55.564292258614991
 31
0.0
  0
LINE
  5
2AC
  8
0
 62
     0
 10
1.714334601404413
 20
53.969923850180557
 30
0.0
 11
16.179651389941021
 21
45.27828465019067
 31
0.0
  0
LINE
  5
2AD
  8
0
 62
     0
 10
20.64577368745686
 20
56.594368408435109
 30
0.0
 11
21.675849837276971
 21
58.308703009839327
 31
0.0
  0
LINE
  5
2AE
  8
0
 62
     0
 10
14.465316788536789
 20
46.308360800010767
 30
0.0
 11
13.43524063871668
 21
44.594026198606556
 31
0.0
  0
LINE
  5
2AF
  8
0
 62
     0
 10
20.64577368745686
 20
56.594368408435109
 30
0.0
 11
14.465316788536789
 21
46.308360800010767
 31
0.0
  0
INSERT
  5
2B0
  8
0
 62
     0
  2
_OBLIQUE
 10
20.64577368745686
 20
56.594368408435109
 30
0.0
 41
2.0
 42
2.0
 43
2.0
 50
239.0
  0
INSERT
  5
2B1
  8
0
 62
     0
  2
_OBLIQUE
 10
14.465316788536789
 20
46.308360800010767
 30
0.0
 41
2.0
 42
2.0
 43
2.0
 50
58.999999999999929
  0
INSERT
  5
2B2
  8
0
  2
*U27
 10
0.0
 20
0.0
 30
0.0
  0
POINT
  5
2B3
  8
DEFPOINTS
 62
     0
 10
6.1804568989202444
 20
65.286007608424995
 30
0.0
  0
POINT
  5
2B4
  8
DEFPOINTS
 62
     0
 10
0.0000000000001918
 20
55.000000000000668
 30
0.0
  0
POINT
  5
2B5
  8
DEFPOINTS
 62
     0
 10
14.465316788536789
 20
46.308360800010767
 30
0.0
  0
ENDBLK
  5
E0
  8
0
  0
BLOCK
  8
0
  2
DIMBLOCK4-REF__LEVEL
 70
     0
 10
0.0
 20
0.0
 30
0.0
  3
DIMBLOCK4-REF__LEVEL
  1

  0
LINE
  5
2A0
  8
0
 62
     0
 10
1.337676573341525
 20
71.960397372155299
 30
0.0
 11
9.5736720461756235
 21
81.775674565494924
 31
0.0
  0
LINE
  5
2A1
  8
0
 62
     0
 10
7.46603211829333
 20
66.818096494662967
 30
0.0
 11
15.702027591127431
 21
76.633373688002592
 31
0.0
  0
LINE
  5
2A2
  8
0
 62
     0
 10
8.288096826802537
 20
80.243585679256967
 30
0.0
 11
6.7560079405645856
 21
81.529160898630053
 31
0.0
  0
LINE
  5
2A3
  8
0
 62
     0
 10
14.416452371754341
 20
75.101284801764649
 30
0.0
 11
15.948541257992289
 21
73.815709582391563
 31
0.0
  0
LINE
  5
2A4
  8
0
 62
     0
 10
8.288096826802537
 20
80.243585679256967
 30
0.0
 11
14.416452371754341
 21
75.101284801764649
 31
0.0
  0
INSERT
  5
2A5
  8
0
 62
     0
  2
_OBLIQUE
 10
8.288096826802537
 20
80.243585679256967
 30
0.0
 41
2.0
 42
2.0
 43
2.0
 50
319.99999999999977
  0
INSERT
  5
2A6
  8
0
 62
     0
  2
_OBLIQUE
 10
14.416452371754341
 20
75.101284801764649
 30
0.0
 41
2.0
 42
2.0
 43
2.0
 50
139.9999999999998
  0
INSERT
  5
2A7
  8
0
  2
*U26
 10
0.0
 20
0.0
 30
0.0
  0
POINT
  5
2A8
  8
DEFPOINTS
 62
     0
 10
0.052101353968439
 20
70.428308485917341
 30
0.0
  0
POINT
  5
2A9
  8
DEFPOINTS
 62
     0
 10
6.1804568989202444
 20
65.286007608424995
 30
0.0
  0
POINT
  5
2AA
  8
DEFPOINTS
 62
     0
 10
14.416452371754341
 20
75.101284801764649
 30
0.0
  0
ENDBLK
  5
FD
  8
0
  0
BLOCK
  8
0
  2
DIMBLOCK5-REF__LEVEL
 70
     0
 10
0.0
 20
0.0
 30
0.0
  3
DIMBLOCK5-REF__LEVEL
  1

  0
LINE
  5
296
  8
0
 62
     0
 10
53.285665398595413
 20
-1.0300761498199189
 30
0.0
 11
49.131432940066233
 21
-3.5261908364362009
 31
0.0
  0
LINE
  5
297
  8
0
 62
     0
 10
71.713883705290925
 20
-1.4799875322684399
 30
0.0
 11
77.400282649099523
 21
-8.2567739024760662
 31
0.0
  0
ARC
  5
298
  8
0
 62
     0
 10
65.286007608425464
 20
6.1804568989212711
 30
0.0
 40
16.846466325916762
 50
211.0000000000006
 51
310.00000000000068
  0
INSERT
  5
299
  8
0
 62
     0
  2
_OBLIQUE
 10
50.845767541470437
 20
-2.4961146866160768
 30
0.0
 41
2.0
 42
2.0
 43
2.0
 50
121.0000000000005
  0
INSERT
  5
29A
  8
0
 62
     0
  2
_OBLIQUE
 10
76.114707429726437
 20
-6.7246850162381273
 30
0.0
 41
2.0
 42
2.0
 43
2.0
 50
40.000000000000647
  0
INSERT
  5
29B
  8
0
  2
*U25
 10
0.0
 20
0.0
 30
0.0
  0
POINT
  5
29C
  8
DEFPOINTS
 62
     0
 10
65.286007608425464
 20
6.1804568989212711
 30
0.0
  0
POINT
  5
29D
  8
DEFPOINTS
 62
     0
 10
54.999999999999631
 20
0.0000000000002043
 30
0.0
  0
POINT
  5
29E
  8
DEFPOINTS
 62
     0
 10
70.428308485917853
 20
0.0521013539694995
 30
0.0
  0
POINT
  5
29F
  8
DEFPOINTS
 62
     0
 10
57.901002845789897
 20
-8.9610467359921842
 30
0.0
  0
ENDBLK
  5
11B
  8
0
  0
BLOCK
  8
0
  2
DIMBLOCK6-REF__LEVEL
 70
     0
 10
0.0
 20
0.0
 30
0.0
  3
DIMBLOCK6-REF__LEVEL
  1

  0
LINE
  5
28C
  8
0
 62
     0
 10
62.056164689500953
 20
4.2397714832948132
 30
0.0
 11
58.627495486693888
 21
2.1796191836546992
 31
0.0
  0
LINE
  5
28D
  8
0
 62
     0
 10
46.768042616974881
 20
0.0000000000001723
 30
0.0
 11
50.768042616975009
 21
-0.0000000000001705
 31
0.0
  0
ARC
  5
28E
  8
0
 62
     0
 10
55.000000000000171
 20
-0.0000000000005311
 30
0.0
 40
6.231957383025156
 50
31.0000000000089
 51
179.99999999999511
  0
INSERT
  5
28F
  8
0
 62
     0
  2
_OBLIQUE
 10
60.34183008809795
 20
3.2096953334750729
 30
0.0
 41
2.0
 42
2.0
 43
2.0
 50
301.00000000000892
  0
INSERT
  5
290
  8
0
 62
     0
  2
_OBLIQUE
 10
48.768042616975023
 20
0.0000000000000018
 30
0.0
 41
2.0
 42
2.0
 43
2.0
 50
269.99999999999511
  0
INSERT
  5
291
  8
0
  2
*U24
 10
0.0
 20
0.0
 30
0.0
  0
POINT
  5
292
  8
DEFPOINTS
 62
     0
 10
55.000000000000171
 20
-0.0000000000005311
 30
0.0
  0
POINT
  5
293
  8
DEFPOINTS
 62
     0
 10
63.770499290905022
 20
5.2698476331151873
 30
0.0
  0
POINT
  5
294
  8
DEFPOINTS
 62
     0
 10
44.768042616974881
 20
0.0000000000003446
 30
0.0
  0
POINT
  5
295
  8
DEFPOINTS
 62
     0
 10
56.010685905261127
 20
6.149455815333746
 30
0.0
  0
ENDBLK
  5
138
  8
0
  0
BLOCK
  8
0
  2
DIMBLOCK7-REF__LEVEL
 70
     0
 10
0.0
 20
0.0
 30
0.0
  3
DIMBLOCK7-REF__LEVEL
  1

  0
LINE
  5
281
  8
0
 62
     0
 10
64.255931458605346
 20
7.8947915003254892
 30
0.0
 11
55.840213381383762
 21
21.90089842549143
 31
0.0
  0
LINE
  5
282
  8
0
 62
     0
 10
53.969923850179498
 20
1.7143346014044201
 30
0.0
 11
45.554205772957928
 21
15.720441526570371
 31
0.0
  0
LINE
  5
283
  8
0
 62
     0
 10
56.870289531203881
 20
20.186563824087219
 30
0.0
 11
58.584624132608091
 21
21.216639973907341
 31
0.0
  0
LINE
  5
284
  8
0
 62
     0
 10
46.584281922778047
 20
14.006106925166151
 30
0.0
 11
44.869947321373843
 21
12.97603077534602
 31
0.0
  0
LINE
  5
285
  8
0
 62
     0
 10
56.870289531203881
 20
20.186563824087219
 30
0.0
 11
46.584281922778047
 21
14.006106925166151
 31
0.0
  0
INSERT
  5
286
  8
0
 62
     0
  2
_OBLIQUE
 10
56.870289531203881
 20
20.186563824087219
 30
0.0
 41
2.0
 42
2.0
 43
2.0
 50
211.0000000000006
  0
INSERT
  5
287
  8
0
 62
     0
  2
_OBLIQUE
 10
46.584281922778047
 20
14.006106925166151
 30
0.0
 41
2.0
 42
2.0
 43
2.0
 50
31.000000000000519
  0
INSERT
  5
288
  8
0
  2
*U23
 10
0.0
 20
0.0
 30
0.0
  0
POINT
  5
289
  8
DEFPOINTS
 62
     0
 10
65.286007608425464
 20
6.1804568989212738
 30
0.0
  0
POINT
  5
28A
  8
DEFPOINTS
 62
     0
 10
54.999999999999631
 20
0.0000000000002061
 30
0.0
  0
POINT
  5
28B
  8
DEFPOINTS
 62
     0
 10
46.584281922778047
 20
14.006106925166151
 30
0.0
  0
ENDBLK
  5
153
  8
0
  0
BLOCK
  8
0
  2
DIMBLOCK8-REF__LEVEL
 70
     0
 10
0.0
 20
0.0
 30
0.0
  3
DIMBLOCK8-REF__LEVEL
  1

  0
LINE
  5
276
  8
0
 62
     0
 10
71.960397372155796
 20
1.3376765733425979
 30
0.0
 11
81.775674565495393
 21
9.5736720461767817
 31
0.0
  0
LINE
  5
277
  8
0
 62
     0
 10
66.818096494663408
 20
7.4660321182943612
 30
0.0
 11
76.633373688003005
 21
15.702027591128561
 31
0.0
  0
LINE
  5
278
  8
0
 62
     0
 10
80.243585679257436
 20
8.2880968268036881
 30
0.0
 11
81.529160898630536
 21
6.7560079405657438
 31
0.0
  0
LINE
  5
279
  8
0
 62
     0
 10
75.101284801765061
 20
14.41645237175546
 30
0.0
 11
73.815709582391975
 21
15.94854125799341
 31
0.0
  0
LINE
  5
27A
  8
0
 62
     0
 10
80.243585679257436
 20
8.2880968268036881
 30
0.0
 11
75.101284801765061
 21
14.41645237175546
 31
0.0
  0
INSERT
  5
27B
  8
0
 62
     0
  2
_OBLIQUE
 10
80.243585679257436
 20
8.2880968268036881
 30
0.0
 41
2.0
 42
2.0
 43
2.0
 50
130.0000000000006
  0
INSERT
  5
27C
  8
0
 62
     0
  2
_OBLIQUE
 10
75.101284801765061
 20
14.41645237175546
 30
0.0
 41
2.0
 42
2.0
 43
2.0
 50
310.00000000000063
  0
INSERT
  5
27D
  8
0
  2
*U22
 10
0.0
 20
0.0
 30
0.0
  0
POINT
  5
27E
  8
DEFPOINTS
 62
     0
 10
70.428308485917853
 20
0.0521013539695048
 30
0.0
  0
POINT
  5
27F
  8
DEFPOINTS
 62
     0
 10
65.286007608425464
 20
6.1804568989212667
 30
0.0
  0
POINT
  5
280
  8
DEFPOINTS
 62
     0
 10
75.101284801765061
 20
14.41645237175546
 30
0.0
  0
ENDBLK
  5
16F
  8
0
  0
BLOCK
  8
0
  2
DIMBLOCK9-REF__LEVEL
 70
     0
 10
0.0
 20
0.0
 30
0.0
  3
DIMBLOCK9-REF__LEVEL
  1

  0
LINE
  5
26D
  8
0
 62
     0
 10
-0.0000000000000001
 20
-14.252939118988881
 30
0.0
 11
-0.0000000000000002
 21
-15.667152681361969
 31
0.0
  0
LINE
  5
26E
  8
0
 62
     0
 10
50.0
 20
-1.9999999999997971
 30
0.0
 11
50.0
 21
-15.667152681361969
 31
0.0
  0
LINE
  5
26F
  8
0
 62
     0
 10
-0.0000000000000001
 20
-13.66715268136198
 30
0.0
 11
50.0
 21
-13.66715268136198
 31
0.0
  0
INSERT
  5
270
  8
0
 62
     0
  2
_OBLIQUE
 10
-0.0000000000000001
 20
-13.66715268136198
 30
0.0
 41
2.0
 42
2.0
 43
2.0
 50
180.0
  0
INSERT
  5
271
  8
0
 62
     0
  2
_OBLIQUE
 10
50.0
 20
-13.66715268136198
 30
0.0
 41
2.0
 42
2.0
 43
2.0
  0
INSERT
  5
272
  8
0
  2
*U21
 10
0.0
 20
0.0
 30
0.0
  0
POINT
  5
273
  8
DEFPOINTS
 62
     0
 10
0.0
 20
-12.252939118988881
 30
0.0
  0
POINT
  5
274
  8
DEFPOINTS
 62
     0
 10
50.0
 20
0.000000000000203
 30
0.0
  0
POINT
  5
275
  8
DEFPOINTS
 62
     0
 10
50.0
 20
-13.66715268136198
 30
0.0
  0
ENDBLK
  5
18B
  8
0
  0
BLOCK
  8
0
  2
DIMBLOCK10-REF__LEVEL
 70
     0
 10
0.0
 20
0.0
 30
0.0
  3
DIMBLOCK10-REF__LEVEL
  1

  0
LINE
  5
262
  8
0
 62
     0
 10
50.0
 20
-1.9999999999997971
 30
0.0
 11
50.0
 21
-15.667152681361969
 31
0.0
  0
LINE
  5
263
  8
0
 62
     0
 10
54.999999999999631
 20
-1.9999999999997971
 30
0.0
 11
54.999999999999631
 21
-15.667152681361969
 31
0.0
  0
LINE
  5
264
  8
0
 62
     0
 10
50.0
 20
-13.66715268136198
 30
0.0
 11
47.999999999999993
 21
-13.66715268136198
 31
0.0
  0
LINE
  5
265
  8
0
 62
     0
 10
54.999999999999631
 20
-13.66715268136198
 30
0.0
 11
56.999999999999631
 21
-13.66715268136198
 31
0.0
  0
LINE
  5
266
  8
0
 62
     0
 10
50.0
 20
-13.66715268136198
 30
0.0
 11
54.999999999999631
 21
-13.66715268136198
 31
0.0
  0
INSERT
  5
267
  8
0
 62
     0
  2
_OBLIQUE
 10
50.0
 20
-13.66715268136198
 30
0.0
 41
2.0
 42
2.0
 43
2.0
  0
INSERT
  5
268
  8
0
 62
     0
  2
_OBLIQUE
 10
54.999999999999631
 20
-13.66715268136198
 30
0.0
 41
2.0
 42
2.0
 43
2.0
 50
180.0
  0
INSERT
  5
269
  8
0
  2
*U20
 10
0.0
 20
0.0
 30
0.0
  0
POINT
  5
26A
  8
DEFPOINTS
 62
     0
 10
50.0
 20
0.000000000000203
 30
0.0
  0
POINT
  5
26B
  8
DEFPOINTS
 62
     0
 10
54.999999999999631
 20
0.000000000000203
 30
0.0
  0
POINT
  5
26C
  8
DEFPOINTS
 62
     0
 10
54.999999999999631
 20
-13.66715268136198
 30
0.0
  0
ENDBLK
  5
1A5
  8
0
  0
BLOCK
  8
0
  2
DIMBLOCK11-REF__LEVEL
 70
     0
 10
0.0
 20
0.0
 30
0.0
  3
DIMBLOCK11-REF__LEVEL
  1

  0
LINE
  5
259
  8
0
 62
     0
 10
-15.700283686403161
 20
-0.0000000000000006
 30
0.0
 11
-14.28607012403007
 21
-0.000000000000001
 31
0.0
  0
LINE
  5
25A
  8
0
 62
     0
 10
-1.9999999999998179
 20
49.999999999999822
 30
0.0
 11
-18.286070124030061
 21
49.999999999999822
 31
0.0
  0
LINE
  5
25B
  8
0
 62
     0
 10
-16.286070124030068
 20
-0.0000000000000004
 30
0.0
 11
-16.286070124030061
 21
49.999999999999822
 31
0.0
  0
INSERT
  5
25C
  8
0
 62
     0
  2
_OBLIQUE
 10
-16.286070124030068
 20
-0.0000000000000004
 30
0.0
 41
2.0
 42
2.0
 43
2.0
 50
270.0
  0
INSERT
  5
25D
  8
0
 62
     0
  2
_OBLIQUE
 10
-16.286070124030061
 20
49.999999999999822
 30
0.0
 41
2.0
 42
2.0
 43
2.0
 50
90.0
  0
INSERT
  5
25E
  8
0
  2
*U19
 10
0.0
 20
0.0
 30
0.0
  0
POINT
  5
25F
  8
DEFPOINTS
 62
     0
 10
-17.70028368640315
 20
0.0
 30
0.0
  0
POINT
  5
260
  8
DEFPOINTS
 62
     0
 10
0.0000000000001819
 20
49.999999999999822
 30
0.0
  0
POINT
  5
261
  8
DEFPOINTS
 62
     0
 10
-16.286070124030061
 20
49.999999999999822
 30
0.0
  0
ENDBLK
  5
1C1
  8
0
  0
BLOCK
  8
0
  2
DIMBLOCK12-REF__LEVEL
 70
     0
 10
0.0
 20
0.0
 30
0.0
  3
DIMBLOCK12-REF__LEVEL
  1

  0
LINE
  5
24E
  8
0
 62
     0
 10
-1.9999999999998179
 20
49.999999999999822
 30
0.0
 11
-18.286070124030061
 21
49.999999999999822
 31
0.0
  0
LINE
  5
24F
  8
0
 62
     0
 10
-1.999999999999809
 20
55.000000000000668
 30
0.0
 11
-18.286070124030061
 21
55.000000000000682
 31
0.0
  0
LINE
  5
250
  8
0
 62
     0
 10
-16.286070124030061
 20
49.999999999999822
 30
0.0
 11
-16.286070124030061
 21
47.999999999999822
 31
0.0
  0
LINE
  5
251
  8
0
 62
     0
 10
-16.286070124030061
 20
55.000000000000682
 30
0.0
 11
-16.286070124030061
 21
57.000000000000682
 31
0.0
  0
LINE
  5
252
  8
0
 62
     0
 10
-16.286070124030061
 20
49.999999999999822
 30
0.0
 11
-16.286070124030061
 21
55.000000000000682
 31
0.0
  0
INSERT
  5
253
  8
0
 62
     0
  2
_OBLIQUE
 10
-16.286070124030061
 20
49.999999999999822
 30
0.0
 41
2.0
 42
2.0
 43
2.0
 50
90.0
  0
INSERT
  5
254
  8
0
 62
     0
  2
_OBLIQUE
 10
-16.286070124030061
 20
55.000000000000682
 30
0.0
 41
2.0
 42
2.0
 43
2.0
 50
270.0
  0
INSERT
  5
255
  8
0
  2
*U18
 10
0.0
 20
0.0
 30
0.0
  0
POINT
  5
256
  8
DEFPOINTS
 62
     0
 10
0.0000000000001819
 20
49.999999999999822
 30
0.0
  0
POINT
  5
257
  8
DEFPOINTS
 62
     0
 10
0.0000000000001903
 20
55.000000000000668
 30
0.0
  0
POINT
  5
258
  8
DEFPOINTS
 62
     0
 10
-16.286070124030061
 20
55.000000000000682
 30
0.0
  0
ENDBLK
  5
1DB
  8
0
  0
BLOCK
  8
0
  2
DIMBLOCK13-REF__LEVEL
 70
     0
 10
0.0
 20
0.0
 30
0.0
  3
DIMBLOCK13-REF__LEVEL
  1

  0
LINE
  5
245
  8
0
 62
     0
 10
-25.739751887166449
 20
-0.0000000000000006
 30
0.0
 11
-24.325538324793371
 21
-0.000000000000001
 31
0.0
  0
LINE
  5
246
  8
0
 62
     0
 10
-1.999999999999809
 20
55.000000000000668
 30
0.0
 11
-28.32553832479336
 21
55.000000000000682
 31
0.0
  0
LINE
  5
247
  8
0
 62
     0
 10
-26.325538324793371
 20
-0.0000000000000004
 30
0.0
 11
-26.32553832479336
 21
55.000000000000682
 31
0.0
  0
INSERT
  5
248
  8
0
 62
     0
  2
_OBLIQUE
 10
-26.325538324793371
 20
-0.0000000000000004
 30
0.0
 41
2.0
 42
2.0
 43
2.0
 50
270.0
  0
INSERT
  5
249
  8
0
 62
     0
  2
_OBLIQUE
 10
-26.32553832479336
 20
55.000000000000682
 30
0.0
 41
2.0
 42
2.0
 43
2.0
 50
90.0
  0
INSERT
  5
24A
  8
0
  2
*U17
 10
0.0
 20
0.0
 30
0.0
  0
POINT
  5
24B
  8
DEFPOINTS
 62
     0
 10
-27.739751887166449
 20
0.0
 30
0.0
  0
POINT
  5
24C
  8
DEFPOINTS
 62
     0
 10
0.0000000000001903
 20
55.000000000000668
 30
0.0
  0
POINT
  5
24D
  8
DEFPOINTS
 62
     0
 10
-26.32553832479336
 20
55.000000000000682
 30
0.0
  0
ENDBLK
  5
1F7
  8
0
  0
BLOCK
  8
0
  2
DIMBLOCK14-REF__LEVEL
 70
     0
 10
0.0
 20
0.0
 30
0.0
  3
DIMBLOCK14-REF__LEVEL
  1

  0
LINE
  5
23C
  8
0
 62
     0
 10
-0.0000000000000001
 20
-25.535151836295292
 30
0.0
 11
-0.0000000000000002
 21
-26.949365398668391
 31
0.0
  0
LINE
  5
23D
  8
0
 62
     0
 10
54.999999999999638
 20
-1.9999999999997971
 30
0.0
 11
54.999999999999638
 21
-26.949365398668391
 31
0.0
  0
LINE
  5
23E
  8
0
 62
     0
 10
-0.0000000000000001
 20
-24.949365398668391
 30
0.0
 11
54.999999999999638
 21
-24.949365398668391
 31
0.0
  0
INSERT
  5
23F
  8
0
 62
     0
  2
_OBLIQUE
 10
-0.0000000000000001
 20
-24.949365398668391
 30
0.0
 41
2.0
 42
2.0
 43
2.0
 50
180.0
  0
INSERT
  5
240
  8
0
 62
     0
  2
_OBLIQUE
 10
54.999999999999638
 20
-24.949365398668391
 30
0.0
 41
2.0
 42
2.0
 43
2.0
  0
INSERT
  5
241
  8
0
  2
*U16
 10
0.0
 20
0.0
 30
0.0
  0
POINT
  5
242
  8
DEFPOINTS
 62
     0
 10
0.0
 20
-23.535151836295292
 30
0.0
  0
POINT
  5
243
  8
DEFPOINTS
 62
     0
 10
54.999999999999638
 20
0.000000000000203
 30
0.0
  0
POINT
  5
244
  8
DEFPOINTS
 62
     0
 10
54.999999999999638
 20
-24.949365398668391
 30
0.0
  0
ENDBLK
  5
211
  8
0
  0
BLOCK
  8
0
  2
*U16
 70
     1
 10
0.0
 20
0.0
 30
0.0
  3
*U16
  1

  0
TEXT
  5
377
  8
0
 62
     0
 10
22.355572620107491
 20
-22.893010169154699
 30
0.0
 40
2.9505988023952101
  1
55.00
  7
ARIAL
  0
ENDBLK
  5
379
  8
0
  0
BLOCK
  8
0
  2
*U17
 70
     1
 10
0.0
 20
0.0
 30
0.0
  3
*U17
  1

  0
TEXT
  5
37B
  8
0
 62
     0
 10
-28.381893554307059
 20
22.355572620107999
 30
0.0
 40
2.9505988023952101
  1
55.00
 50
90.0
  7
ARIAL
  0
ENDBLK
  5
37D
  8
0
  0
BLOCK
  8
0
  2
*U18
 70
     1
 10
0.0
 20
0.0
 30
0.0
  3
*U18
  1

  0
TEXT
  5
37F
  8
0
 62
     0
 10
-18.342425353543749
 20
48.501797734680949
 30
0.0
 40
2.9505988023952101
  1
5.00
 50
90.0
  7
ARIAL
  0
ENDBLK
  5
381
  8
0
  0
BLOCK
  8
0
  2
*U19
 70
     1
 10
0.0
 20
0.0
 30
0.0
  3
*U19
  1

  0
TEXT
  5
383
  8
0
 62
     0
 10
-18.34242535354376
 20
19.855572620107569
 30
0.0
 40
2.9505988023952101
  1
50.00
 50
90.0
  7
ARIAL
  0
ENDBLK
  5
385
  8
0
  0
BLOCK
  8
0
  2
*U20
 70
     1
 10
0.0
 20
0.0
 30
0.0
  3
*U20
  1

  0
TEXT
  5
387
  8
0
 62
     0
 10
48.501797734680522
 20
-11.61079745184829
 30
0.0
 40
2.9505988023952101
  1
5.00
  7
ARIAL
  0
ENDBLK
  5
389
  8
0
  0
BLOCK
  8
0
  2
*U21
 70
     1
 10
0.0
 20
0.0
 30
0.0
  3
*U21
  1

  0
TEXT
  5
38B
  8
0
 62
     0
 10
19.855572620107662
 20
-11.61079745184829
 30
0.0
 40
2.9505988023952101
  1
50.00
  7
ARIAL
  0
ENDBLK
  5
38D
  8
0
  0
BLOCK
  8
0
  2
*U22
 70
     1
 10
0.0
 20
0.0
 30
0.0
  3
*U22
  1

  0
TEXT
  5
38F
  8
0
 62
     0
 10
76.678993590107808
 20
15.73533308222401
 30
0.0
 40
2.9505988023952101
  1
8.00
 50
310.00000000000063
  7
ARIAL
  0
ENDBLK
  5
391
  8
0
  0
BLOCK
  8
0
  2
*U23
 70
     1
 10
0.0
 20
0.0
 30
0.0
  3
*U23
  1

  0
TEXT
  5
393
  8
0
 62
     0
 10
46.139510116748312
 20
16.137873749758189
 30
0.0
 40
2.9505988023952101
  1
12.00
 50
31.000000000000519
  7
ARIAL
  0
ENDBLK
  5
395
  8
0
  0
BLOCK
  8
0
  2
*U24
 70
     1
 10
0.0
 20
0.0
 30
0.0
  3
*U24
  1

  0
TEXT
  5
397
  8
0
 62
     0
 10
45.831986545043712
 20
6.0586167296104882
 30
0.0
 40
2.9505988023952101
  1
149.00°
 50
15.50000000000202
  7
ARIAL
  0
ENDBLK
  5
399
  8
0
  0
BLOCK
  8
0
  2
*U25
 70
     1
 10
0.0
 20
0.0
 30
0.0
  3
*U25
  1

  0
TEXT
  5
39B
  8
0
 62
     0
 10
56.995885234409691
 20
-7.4280214417950612
 30
0.0
 40
2.9505988023952101
  1
99.00°
 50
350.50000000000063
  7
ARIAL
  0
ENDBLK
  5
39D
  8
0
  0
BLOCK
  8
0
  2
*U26
 70
     1
 10
0.0
 20
0.0
 30
0.0
  3
*U26
  1

  0
TEXT
  5
39F
  8
0
 62
     0
 10
9.6128154416250489
 20
81.816395884209442
 30
0.0
 40
2.9505988023952101
  1
8.00
 50
319.99999999999977
  7
ARIAL
  0
ENDBLK
  5
3A1
  8
0
  0
BLOCK
  8
0
  2
*U27
 70
     1
 10
0.0
 20
0.0
 30
0.0
  3
*U27
  1

  0
TEXT
  5
3A3
  8
0
 62
     0
 10
13.071802690394531
 20
47.981791471460213
 30
0.0
 40
2.9505988023952101
  1
12.00
 50
58.999999999999929
  7
ARIAL
  0
ENDBLK
  5
3A5
  8
0
  0
BLOCK
  8
0
  2
*U28
 70
     1
 10
0.0
 20
0.0
 30
0.0
  3
*U28
  1

  0
TEXT
  5
3A7
  8
0
 62
     0
 10
5.3965640446350971
 20
46.01559000404874
 30
0.0
 40
2.9505988023952101
  1
149.00°
 50
74.499999999999943
  7
ARIAL
  0
ENDBLK
  5
3A9
  8
0
  0
BLOCK
  8
0
  2
*U29
 70
     1
 10
0.0
 20
0.0
 30
0.0
  3
*U29
  1

  0
TEXT
  5
3AB
  8
0
 62
     0
 10
-9.3856119994002896
 20
68.693985128691409
 30
0.0
 40
2.9505988023952101
  1
99.00°
 50
279.49999999999989
  7
ARIAL
  0
ENDBLK
  5
3AD
  8
0
  0
ENDSEC
  0
SECTION
  2
ENTITIES
  0
LINE
  5
88
  8
0
 10
50.0
 20
0.0000000000002037
 30
0.0
 11
54.999999999999638
 21
0.0000000000002037
 31
0.0
1001
REVIT
1002
{
1070
     1
1000
325130
1002
}
1002
{
1070
     2
1000
-2002000
1002
}
1002
{
1070
     3
1000
206785
1002
}
  0
LINE
  5
89
  8
0
 10
0.0000000000001819
 20
49.999999999999822
 30
0.0
 11
0.0000000000001907
 21
55.000000000000668
 31
0.0
1001
REVIT
1002
{
1070
     1
1000
325131
1002
}
1002
{
1070
     2
1000
-2002000
1002
}
1002
{
1070
     3
1000
206785
1002
}
  0
LINE
  5
8A
  8
0
 10
50.0
 20
-0.0000000000005007
 30
0.0
 11
0.0
 21
-0.0000000000001777
 31
0.0
1001
REVIT
1002
{
1070
     1
1000
325110
1002
}
1002
{
1070
     2
1000
-2002000
1002
}
1002
{
1070
     3
1000
206783
1002
}
  0
LINE
  5
8B
  8
0
 10
0.0
 20
-0.0000000000001777
 30
0.0
 11
0.0000000000002423
 21
49.999999999999822
 31
0.0
1001
REVIT
1002
{
1070
     1
1000
325113
1002
}
1002
{
1070
     2
1000
-2002000
1002
}
1002
{
1070
     3
1000
206783
1002
}
  0
LINE
  5
8C
  8
0
 10
0.0000000000001912
 20
55.000000000000668
 30
0.0
 11
6.1804568989202426
 21
65.286007608424995
 31
0.0
1001
REVIT
1002
{
1070
     1
1000
325116
1002
}
1002
{
1070
     2
1000
-2002000
1002
}
1002
{
1070
     3
1000
206783
1002
}
  0
LINE
  5
8D
  8
0
 10
6.1804568989202462
 20
65.286007608424995
 30
0.0
 11
0.0521013539684358
 21
70.428308485917341
 31
0.0
1001
REVIT
1002
{
1070
     1
1000
325117
1002
}
1002
{
1070
     2
1000
-2002000
1002
}
1002
{
1070
     3
1000
206783
1002
}
  0
LINE
  5
8E
  8
0
 10
54.999999999999631
 20
0.0000000000002022
 30
0.0
 11
65.286007608425464
 21
6.180456898921272
 31
0.0
1001
REVIT
1002
{
1070
     1
1000
325122
1002
}
1002
{
1070
     2
1000
-2002000
1002
}
1002
{
1070
     3
1000
206783
1002
}
  0
LINE
  5
8F
  8
0
 10
65.286007608425464
 20
6.180456898921272
 30
0.0
 11
70.428308485917853
 21
0.0521013539695018
 31
0.0
1001
REVIT
1002
{
1070
     1
1000
325123
1002
}
1002
{
1070
     2
1000
-2002000
1002
}
1002
{
1070
     3
1000
206783
1002
}
  0
ENDSEC
  0
EOF
