  0
SECTION
  2
HEADER
  9
$ACADVER
  1
AC1009
  9
$INSBASE
 10
0.0
 20
0.0
 30
0.0
  9
$EXTMIN
 10
-23.819732670191652
 20
-50.603399292620637
 30
0.0
  9
$EXTMAX
 10
37.517616322172479
 20
61.0
 30
0.0
  9
$LIMMIN
 10
0.0
 20
0.0
  9
$LIMMAX
 10
12.0
 20
9.0
  9
$ORTHOMODE
 70
     0
  9
$REGENMODE
 70
     1
  9
$FILLMODE
 70
     1
  9
$QTEXTMODE
 70
     0
  9
$MIRRTEXT
 70
     0
  9
$DRAGMODE
 70
     2
  9
$LTSCALE
 40
1.0
  9
$OSMODE
 70
   127
  9
$ATTMODE
 70
     1
  9
$TEXTSIZE
 40
0.2
  9
$TRACEWID
 40
0.05
  9
$TEXTSTYLE
  7
STANDARD
  9
$CLAYER
  8
0
  9
$CELTYPE
  6
BYLAYER
  9
$CECOLOR
 62
   256
  9
$DIMSCALE
 40
1.0
  9
$DIMASZ
 40
0.18
  9
$DIMEXO
 40
0.0625
  9
$DIMDLI
 40
0.38
  9
$DIMRND
 40
0.0
  9
$DIMDLE
 40
0.0
  9
$DIMEXE
 40
0.18
  9
$DIMTP
 40
0.0
  9
$DIMTM
 40
0.0
  9
$DIMTXT
 40
0.18
  9
$DIMCEN
 40
0.09
  9
$DIMTSZ
 40
0.0
  9
$DIMTOL
 70
     0
  9
$DIMLIM
 70
     0
  9
$DIMTIH
 70
     1
  9
$DIMTOH
 70
     1
  9
$DIMSE1
 70
     0
  9
$DIMSE2
 70
     0
  9
$DIMTAD
 70
     0
  9
$DIMZIN
 70
     0
  9
$DIMBLK
  1

  9
$DIMASO
 70
     1
  9
$DIMSHO
 70
     1
  9
$DIMPOST
  1

  9
$DIMAPOST
  1

  9
$DIMALT
 70
     0
  9
$DIMALTD
 70
     2
  9
$DIMALTF
 40
25.399999999999999
  9
$DIMLFAC
 40
1.0
  9
$DIMTOFL
 70
     0
  9
$DIMTVP
 40
0.0
  9
$DIMTIX
 70
     0
  9
$DIMSOXD
 70
     0
  9
$DIMSAH
 70
     0
  9
$DIMBLK1
  1

  9
$DIMBLK2
  1

  9
$DIMSTYLE
  2
STANDARD
  9
$DIMCLRD
 70
     0
  9
$DIMCLRE
 70
     0
  9
$DIMCLRT
 70
     0
  9
$DIMTFAC
 40
1.0
  9
$DIMGAP
 40
0.09
  9
$LUNITS
 70
     2
  9
$LUPREC
 70
     4
  9
$SKETCHINC
 40
0.1
  9
$FILLETRAD
 40
0.0
  9
$AUNITS
 70
     0
  9
$AUPREC
 70
     0
  9
$MENU
  1
.
  9
$ELEVATION
 40
0.0
  9
$PELEVATION
 40
0.0
  9
$THICKNESS
 40
0.0
  9
$LIMCHECK
 70
     0
  9
$BLIPMODE
 70
     0
  9
$CHAMFERA
 40
0.0
  9
$CHAMFERB
 40
0.0
  9
$SKPOLY
 70
     0
  9
$TDCREATE
 40
2457375.5636044098
  9
$TDUPDATE
 40
2457378.9871465391
  9
$TDINDWG
 40
0.0001227431
  9
$TDUSRTIMER
 40
0.0001227431
  9
$USRTIMER
 70
     1
  9
$ANGBASE
 50
0.0
  9
$ANGDIR
 70
     0
  9
$PDMODE
 70
     0
  9
$PDSIZE
 40
0.0
  9
$PLINEWID
 40
0.0
  9
$COORDS
 70
     2
  9
$SPLFRAME
 70
     0
  9
$SPLINETYPE
 70
     6
  9
$SPLINESEGS
 70
     8
  9
$ATTDIA
 70
     0
  9
$ATTREQ
 70
     0
  9
$HANDLING
 70
     1
  9
$HANDSEED
  5
25A
  9
$SURFTAB1
 70
     6
  9
$SURFTAB2
 70
     6
  9
$SURFTYPE
 70
     6
  9
$SURFU
 70
     6
  9
$SURFV
 70
     6
  9
$UCSNAME
  2

  9
$UCSORG
 10
0.0
 20
0.0
 30
0.0
  9
$UCSXDIR
 10
1.0
 20
0.0
 30
0.0
  9
$UCSYDIR
 10
0.0
 20
1.0
 30
0.0
  9
$PUCSNAME
  2

  9
$PUCSORG
 10
0.0
 20
0.0
 30
0.0
  9
$PUCSXDIR
 10
1.0
 20
0.0
 30
0.0
  9
$PUCSYDIR
 10
0.0
 20
1.0
 30
0.0
  9
$USERI1
 70
     0
  9
$USERI2
 70
     0
  9
$USERI3
 70
     0
  9
$USERI4
 70
     0
  9
$USERI5
 70
     0
  9
$USERR1
 40
0.0
  9
$USERR2
 40
0.0
  9
$USERR3
 40
0.0
  9
$USERR4
 40
0.0
  9
$USERR5
 40
0.0
  9
$WORLDVIEW
 70
     1
  9
$SHADEDGE
 70
     3
  9
$SHADEDIF
 70
    70
  9
$TILEMODE
 70
     1
  9
$MAXACTVP
 70
    64
  9
$PLIMCHECK
 70
     0
  9
$PEXTMIN
 10
0.0
 20
0.0
 30
0.0
  9
$PEXTMAX
 10
0.0
 20
0.0
 30
0.0
  9
$PLIMMIN
 10
0.0
 20
0.0
  9
$PLIMMAX
 10
12.0
 20
9.0
  9
$UNITMODE
 70
     0
  9
$VISRETAIN
 70
     1
  9
$PLINEGEN
 70
     0
  9
$PSLTSCALE
 70
     1
  0
ENDSEC
  0
SECTION
  2
TABLES
  0
TABLE
  2
VPORT
 70
     1
  0
VPORT
  2
*ACTIVE
 70
     0
 10
0.0
 20
0.0
 11
1.0
 21
1.0
 12
99.993384470628484
 22
5.6194507521707493
 13
0.0
 23
0.0
 14
1.0
 24
1.0
 15
0.0
 25
0.0
 16
0.0
 26
0.0
 36
1.0
 17
0.0
 27
0.0
 37
0.0
 40
91.921020572872735
 41
1.7244755244755241
 42
50.0
 43
0.0
 44
0.0
 50
0.0
 51
0.0
 71
     0
 72
  1000
 73
     1
 74
     3
 75
     0
 76
     0
 77
     0
 78
     0
  0
ENDTAB
  0
TABLE
  2
LTYPE
 70
     1
  0
LTYPE
  2
CONTINUOUS
 70
     0
  3
Solid line
 72
    65
 73
     0
 40
0.0
  0
ENDTAB
  0
TABLE
  2
LAYER
 70
     5
  0
LAYER
  2
0
 70
     0
 62
     7
  6
CONTINUOUS
  0
LAYER
  2
DEFPOINTS
 70
     0
 62
     7
  6
CONTINUOUS
  0
ENDTAB
  0
TABLE
  2
STYLE
 70
     3
  0
STYLE
  2
STANDARD
 70
     0
 40
0.0
 41
1.0
 50
0.0
 71
     0
 42
0.2
  3
txt
  4

  0
STYLE
  2
ARIAL
 70
     0
 40
2.9505988023952101
 41
1.0
 50
0.0
 71
     0
 42
0.2
  3
txt
  4

  0
ENDTAB
  0
TABLE
  2
VIEW
 70
     0
  0
ENDTAB
  0
TABLE
  2
UCS
 70
     0
  0
ENDTAB
  0
TABLE
  2
APPID
 70
     5
  0
APPID
  2
ACAD
 70
     0
  0
APPID
  2
ACADANNOTATIVE
 70
     0
  0
APPID
  2
REVIT
 70
     0
  0
APPID
  2
ACAD_NAV_VCDISPLAY
 70
     0
  0
APPID
  2
ACAD_MLEADERVER
 70
     0
  0
ENDTAB
  0
TABLE
  2
DIMSTYLE
 70
     4
  0
DIMSTYLE
  2
STANDARD
 70
     0
  3

  4

  5

  6

  7

 40
1.0
 41
0.18
 42
0.0625
 43
0.38
 44
0.18
 45
0.0
 46
0.0
 47
0.0
 48
0.0
140
0.18
141
0.09
142
0.0
143
25.399999999999999
144
1.0
145
0.0
146
1.0
147
0.09
 71
     0
 72
     0
 73
     1
 74
     1
 75
     0
 76
     0
 77
     0
 78
     0
170
     0
171
     2
172
     0
173
     0
174
     0
175
     0
176
     0
177
     0
178
     0
  0
DIMSTYLE
  2
LINEAR
 70
     0
  3
<>
  4

  5

  6
OBLIQUE
  7
OBLIQUE
 40
304.80000000000001
 41
0.0065616797900262
 42
0.0065616797900262
 43
0.38
 44
0.0065616797900262
 45
0.01
 46
0.0
 47
0.0
 48
0.0
140
3.0
141
0.09
142
0.0
143
25.399999999999999
144
1.0
145
1.0
146
1.0
147
0.0065616797900262
 71
     0
 72
     0
 73
     0
 74
     0
 75
     0
 76
     0
 77
     1
 78
     0
170
     0
171
     2
172
     1
173
     1
174
     1
175
     0
176
     0
177
     0
178
     0
  0
DIMSTYLE
  2
ANGULAR
 70
     0
  3
<>
  4

  5

  6
OBLIQUE
  7
OBLIQUE
 40
304.80000000000001
 41
0.0065616797900262
 42
0.0065616797900262
 43
0.38
 44
0.0065616797900262
 45
0.0
 46
0.0
 47
0.0
 48
0.0
140
3.0
141
0.09
142
0.0
143
25.399999999999999
144
1.0
145
1.0
146
1.0
147
0.0065616797900262
 71
     0
 72
     0
 73
     0
 74
     0
 75
     0
 76
     0
 77
     1
 78
     0
170
     0
171
     2
172
     1
173
     1
174
     1
175
     0
176
     0
177
     0
178
     0
  0
ENDTAB
  0
ENDSEC
  0
SECTION
  2
BLOCKS
  0
BLOCK
  8
0
  2
$MODEL_SPACE
 70
     0
 10
0.0
 20
0.0
 30
0.0
  3
$MODEL_SPACE
  1

  0
ENDBLK
  5
72
  8
0
  0
BLOCK
 67
     1
  8
0
  2
$PAPER_SPACE
 70
     0
 10
0.0
 20
0.0
 30
0.0
  3
$PAPER_SPACE
  1

  0
ENDBLK
  5
76
 67
     1
  8
0
  0
BLOCK
  8
0
  2
_OBLIQUE
 70
     0
 10
0.0
 20
0.0
 30
0.0
  3
_OBLIQUE
  1

  0
LINE
  5
9E
  8
0
  6
BYBLOCK
 62
     0
 10
-0.5
 20
-0.5
 30
0.0
 11
0.5
 21
0.5
 31
0.0
  0
ENDBLK
  5
A0
  8
0
  0
BLOCK
  8
0
  2
DIMBLOCK1-REF__LEVEL
 70
     0
 10
0.0
 20
0.0
 30
0.0
  3
DIMBLOCK1-REF__LEVEL
  1

  0
LINE
  5
18D
  8
0
 62
     0
 10
-17.797074762381921
 20
60.0
 30
0.0
 11
-19.211288324755198
 21
60.0
 31
0.0
  0
LINE
  5
18E
  8
0
 62
     0
 10
-17.797074762381939
 20
-0.000000000000004
 30
0.0
 11
-19.21128832475522
 21
-0.0000000000000036
 31
0.0
  0
LINE
  5
18F
  8
0
 62
     0
 10
-17.211288324755198
 20
60.0
 30
0.0
 11
-17.21128832475522
 21
-0.0000000000000042
 31
0.0
  0
INSERT
  5
190
  8
0
 62
     0
  2
_OBLIQUE
 10
-17.211288324755198
 20
60.0
 30
0.0
 41
2.0
 42
2.0
 43
2.0
 50
90.0
  0
INSERT
  5
191
  8
0
 62
     0
  2
_OBLIQUE
 10
-17.21128832475522
 20
-0.0000000000000042
 30
0.0
 41
2.0
 42
2.0
 43
2.0
 50
270.0
  0
INSERT
  5
192
  8
0
  2
*U13
 10
0.0
 20
0.0
 30
0.0
  0
POINT
  5
193
  8
DEFPOINTS
 62
     0
 10
-15.79707476238192
 20
59.999999999999993
 30
0.0
  0
POINT
  5
194
  8
DEFPOINTS
 62
     0
 10
-15.79707476238193
 20
-0.0000000000000046
 30
0.0
  0
POINT
  5
195
  8
DEFPOINTS
 62
     0
 10
-17.21128832475522
 20
-0.0000000000000042
 30
0.0
  0
ENDBLK
  5
9B
  8
0
  0
BLOCK
  8
0
  2
DIMBLOCK2-REF__LEVEL
 70
     0
 10
0.0
 20
0.0
 30
0.0
  3
DIMBLOCK2-REF__LEVEL
  1

  0
LINE
  5
184
  8
0
 62
     0
 10
9.7274066103123111
 20
-37.070552360820081
 30
0.0
 11
25.24203212111092
 21
-37.070552360820088
 31
0.0
  0
LINE
  5
185
  8
0
 62
     0
 10
9.7274066103123662
 20
-2.0705523608201148
 30
0.0
 11
25.242032121110931
 21
-2.0705523608201188
 31
0.0
  0
LINE
  5
186
  8
0
 62
     0
 10
23.24203212111092
 20
-37.070552360820088
 30
0.0
 11
23.24203212111092
 21
-2.0705523608201188
 31
0.0
  0
INSERT
  5
187
  8
0
 62
     0
  2
_OBLIQUE
 10
23.24203212111092
 20
-37.070552360820088
 30
0.0
 41
2.0
 42
2.0
 43
2.0
 50
270.0
  0
INSERT
  5
188
  8
0
 62
     0
  2
_OBLIQUE
 10
23.24203212111092
 20
-2.0705523608201188
 30
0.0
 41
2.0
 42
2.0
 43
2.0
 50
90.0
  0
INSERT
  5
189
  8
0
  2
*U12
 10
0.0
 20
0.0
 30
0.0
  0
POINT
  5
18A
  8
DEFPOINTS
 62
     0
 10
7.727406610312312
 20
-37.070552360820081
 30
0.0
  0
POINT
  5
18B
  8
DEFPOINTS
 62
     0
 10
7.7274066103123671
 20
-2.070552360820114
 30
0.0
  0
POINT
  5
18C
  8
DEFPOINTS
 62
     0
 10
23.24203212111092
 20
-2.0705523608201188
 30
0.0
  0
ENDBLK
  5
BC
  8
0
  0
BLOCK
  8
0
  2
DIMBLOCK3-REF__LEVEL
 70
     0
 10
0.0
 20
0.0
 30
0.0
  3
DIMBLOCK3-REF__LEVEL
  1

  0
LINE
  5
179
  8
0
 62
     0
 10
0.5176380902048655
 20
1.931851652578185
 30
0.0
 11
3.280413001164693
 21
12.24266799015685
 31
0.0
  0
LINE
  5
17A
  8
0
 62
     0
 10
8.2450447005174095
 20
-0.138700708241978
 30
0.0
 11
11.00781961147724
 21
10.172115629336689
 31
0.0
  0
LINE
  5
17B
  8
0
 62
     0
 10
2.762774910959652
 20
10.31081633757872
 30
0.0
 11
0.8309232583815155
 21
10.828454427783759
 31
0.0
  0
LINE
  5
17C
  8
0
 62
     0
 10
10.4901815212722
 20
8.2402639767585573
 30
0.0
 11
12.42203317385033
 21
7.7226258865535149
 31
0.0
  0
LINE
  5
17D
  8
0
 62
     0
 10
2.762774910959652
 20
10.31081633757872
 30
0.0
 11
10.4901815212722
 21
8.2402639767585573
 31
0.0
  0
INSERT
  5
17E
  8
0
 62
     0
  2
_OBLIQUE
 10
2.762774910959652
 20
10.31081633757872
 30
0.0
 41
2.0
 42
2.0
 43
2.0
 50
345.0
  0
INSERT
  5
17F
  8
0
 62
     0
  2
_OBLIQUE
 10
10.4901815212722
 20
8.2402639767585573
 30
0.0
 41
2.0
 42
2.0
 43
2.0
 50
165.0
  0
INSERT
  5
180
  8
0
  2
*U11
 10
0.0
 20
0.0
 30
0.0
  0
POINT
  5
181
  8
DEFPOINTS
 62
     0
 10
-0.0000000000001755
 20
0.0000000000000486
 30
0.0
  0
POINT
  5
182
  8
DEFPOINTS
 62
     0
 10
7.727406610312368
 20
-2.070552360820114
 30
0.0
  0
POINT
  5
183
  8
DEFPOINTS
 62
     0
 10
10.4901815212722
 20
8.2402639767585573
 30
0.0
  0
ENDBLK
  5
D6
  8
0
  0
BLOCK
  8
0
  2
DIMBLOCK4-REF__LEVEL
 70
     0
 10
0.0
 20
0.0
 30
0.0
  3
DIMBLOCK4-REF__LEVEL
  1

  0
LINE
  5
16E
  8
0
 62
     0
 10
5.9953558027434344
 20
-38.070552360820081
 30
0.0
 11
-3.7532640710247338
 21
-43.698920669167457
 31
0.0
  0
LINE
  5
16F
  8
0
 62
     0
 10
9.4953558027434202
 20
-44.13273018731114
 30
0.0
 11
-0.2532640710247449
 21
-49.761098495658523
 31
0.0
  0
LINE
  5
170
  8
0
 62
     0
 10
-2.0212132634558548
 20
-42.69892066916745
 30
0.0
 11
-3.0212132634558522
 21
-40.966869861598582
 31
0.0
  0
LINE
  5
171
  8
0
 62
     0
 10
1.478786736544133
 20
-48.761098495658523
 30
0.0
 11
2.4787867365441332
 21
-50.493149303227398
 31
0.0
  0
LINE
  5
172
  8
0
 62
     0
 10
-2.0212132634558548
 20
-42.69892066916745
 30
0.0
 11
1.478786736544133
 21
-48.761098495658523
 31
0.0
  0
INSERT
  5
173
  8
0
 62
     0
  2
_OBLIQUE
 10
-2.0212132634558548
 20
-42.69892066916745
 30
0.0
 41
2.0
 42
2.0
 43
2.0
 50
300.0
  0
INSERT
  5
174
  8
0
 62
     0
  2
_OBLIQUE
 10
1.478786736544133
 20
-48.761098495658523
 30
0.0
 41
2.0
 42
2.0
 43
2.0
 50
119.9999999999999
  0
INSERT
  5
175
  8
0
  2
*U10
 10
0.0
 20
0.0
 30
0.0
  0
POINT
  5
176
  8
DEFPOINTS
 62
     0
 10
7.727406610312312
 20
-37.070552360820088
 30
0.0
  0
POINT
  5
177
  8
DEFPOINTS
 62
     0
 10
11.2274066103123
 20
-43.132730187311147
 30
0.0
  0
POINT
  5
178
  8
DEFPOINTS
 62
     0
 10
1.478786736544133
 20
-48.761098495658523
 30
0.0
  0
ENDBLK
  5
F2
  8
0
  0
BLOCK
  8
0
  2
DIMBLOCK5-REF__LEVEL
 70
     0
 10
0.0
 20
0.0
 30
0.0
  3
DIMBLOCK5-REF__LEVEL
  1

  0
LINE
  5
164
  8
0
 62
     0
 10
9.6592582628905035
 20
-2.5881904510251572
 30
0.0
 11
34.307382893812552
 21
-9.1926355408223905
 31
0.0
  0
LINE
  5
165
  8
0
 62
     0
 10
35.517616322172472
 20
0.0000000000000018
 30
0.0
 11
31.517616322172469
 21
0.0000000000000044
 31
0.0
  0
ARC
  5
166
  8
0
 62
     0
 10
0.0
 20
0.0
 30
0.0
 40
33.517616322172472
 50
345.0
 51
0.0
  0
INSERT
  5
167
  8
0
 62
     0
  2
_OBLIQUE
 10
32.375531241234398
 20
-8.6749974506173544
 30
0.0
 41
2.0
 42
2.0
 43
2.0
 50
255.0
  0
INSERT
  5
168
  8
0
 62
     0
  2
_OBLIQUE
 10
33.517616322172472
 20
-0.0000000000000222
 30
0.0
 41
2.0
 42
2.0
 43
2.0
 50
90.0
  0
INSERT
  5
169
  8
0
  2
*U9
 10
0.0
 20
0.0
 30
0.0
  0
POINT
  5
16A
  8
DEFPOINTS
 62
     0
 10
0.0
 20
0.0
 30
0.0
  0
POINT
  5
16B
  8
DEFPOINTS
 62
     0
 10
7.7274066103123671
 20
-2.0705523608201148
 30
0.0
  0
POINT
  5
16C
  8
DEFPOINTS
 62
     0
 10
37.517616322172479
 20
0.0
 30
0.0
  0
POINT
  5
16D
  8
DEFPOINTS
 62
     0
 10
33.008408416563981
 20
-5.8202729940846236
 30
0.0
  0
ENDBLK
  5
110
  8
0
  0
BLOCK
  8
0
  2
DIMBLOCK6-REF__LEVEL
 70
     0
 10
0.0
 20
0.0
 30
0.0
  3
DIMBLOCK6-REF__LEVEL
  1

  0
LINE
  5
15A
  8
0
 62
     0
 10
11.5311871316643
 20
-43.65889348464259
 30
0.0
 11
9.5311871316643124
 21
-40.194791869504833
 31
0.0
  0
LINE
  5
15B
  8
0
 62
     0
 10
7.7274066103123227
 20
-29.462991318116071
 30
0.0
 11
7.7274066103123147
 21
-33.462991318116053
 31
0.0
  0
ARC
  5
15C
  8
0
 62
     0
 10
7.7274066103123102
 20
-37.070552360820081
 30
0.0
 40
5.607561042704015
 50
299.99999999999989
 51
89.999999999999915
  0
INSERT
  5
15D
  8
0
 62
     0
  2
_OBLIQUE
 10
10.531187131664311
 20
-41.926842677073701
 30
0.0
 41
2.0
 42
2.0
 43
2.0
 50
209.99999999999989
  0
INSERT
  5
15E
  8
0
 62
     0
  2
_OBLIQUE
 10
7.72740661031232
 20
-31.46299131811606
 30
0.0
 41
2.0
 42
2.0
 43
2.0
 50
179.99999999999989
  0
INSERT
  5
15F
  8
0
  2
*U8
 10
0.0
 20
0.0
 30
0.0
  0
POINT
  5
160
  8
DEFPOINTS
 62
     0
 10
7.7274066103123102
 20
-37.070552360820081
 30
0.0
  0
POINT
  5
161
  8
DEFPOINTS
 62
     0
 10
12.5311871316643
 20
-45.390944292211472
 30
0.0
  0
POINT
  5
162
  8
DEFPOINTS
 62
     0
 10
7.7274066103123271
 20
-27.462991318116071
 30
0.0
  0
POINT
  5
163
  8
DEFPOINTS
 62
     0
 10
13.24977620065644
 20
-38.044295117041713
 30
0.0
  0
ENDBLK
  5
12E
  8
0
  0
BLOCK
  8
0
  2
*U8
 70
     1
 10
0.0
 20
0.0
 30
0.0
  3
*U8
  1

  0
TEXT
  5
243
  8
0
 62
     0
 10
13.26267709027092
 20
-28.117364394253261
 30
0.0
 40
2.9505988023952101
  1
150.00°
 50
284.99999999999989
  7
ARIAL
  0
ENDBLK
  5
245
  8
0
  0
BLOCK
  8
0
  2
*U9
 70
     1
 10
0.0
 20
0.0
 30
0.0
  3
*U9
  1

  0
TEXT
  5
247
  8
0
 62
     0
 10
30.399908643374641
 20
-10.12385222824817
 30
0.0
 40
2.9505988023952101
  1
15.00°
 50
82.500000000000028
  7
ARIAL
  0
ENDBLK
  5
249
  8
0
  0
BLOCK
  8
0
  2
*U10
 70
     1
 10
0.0
 20
0.0
 30
0.0
  3
*U10
  1

  0
TEXT
  5
24B
  8
0
 62
     0
 10
-0.4954965884567047
 20
-41.228829009193653
 30
0.0
 40
2.9505988023952101
  1
7.00
 50
300.0
  7
ARIAL
  0
ENDBLK
  5
24D
  8
0
  0
BLOCK
  8
0
  2
*U11
 70
     1
 10
0.0
 20
0.0
 30
0.0
  3
*U11
  1

  0
TEXT
  5
24F
  8
0
 62
     0
 10
3.298679392340643
 20
12.29611675214969
 30
0.0
 40
2.9505988023952101
  1
8.00
 50
345.0
  7
ARIAL
  0
ENDBLK
  5
251
  8
0
  0
BLOCK
  8
0
  2
*U12
 70
     1
 10
0.0
 20
0.0
 30
0.0
  3
*U12
  1

  0
TEXT
  5
253
  8
0
 62
     0
 10
21.18366420482889
 20
-24.71598608409661
 30
0.0
 40
2.9505988023952101
  1
35.00
 50
90.0
  7
ARIAL
  0
ENDBLK
  5
255
  8
0
  0
BLOCK
  8
0
  2
*U13
 70
     1
 10
0.0
 20
0.0
 30
0.0
  3
*U13
  1

  0
TEXT
  5
257
  8
0
 62
     0
 10
-19.267643554268901
 20
24.863623367181042
 30
0.0
 40
2.9505988023952101
  1
60.00
 50
90.0
  7
ARIAL
  0
ENDBLK
  5
259
  8
0
  0
ENDSEC
  0
SECTION
  2
ENTITIES
  0
LINE
  5
88
  8
0
 10
-0.0000000000000808
 20
59.999999999999929
 30
0.0
 11
-0.0000000000001777
 21
0.0000000000000508
 31
0.0
1001
REVIT
1002
{
1070
     1
1000
253274
1002
}
1002
{
1070
     2
1000
-2002000
1002
}
1002
{
1070
     3
1000
206783
1002
}
  0
LINE
  5
89
  8
0
 10
-0.0000000000001761
 20
0.0000000000000485
 30
0.0
 11
7.727406610312368
 21
-2.0705523608201148
 31
0.0
1001
REVIT
1002
{
1070
     1
1000
253276
1002
}
1002
{
1070
     2
1000
-2002000
1002
}
1002
{
1070
     3
1000
206783
1002
}
  0
LINE
  5
8A
  8
0
 10
7.7274066103123671
 20
-2.070552360820114
 30
0.0
 11
7.727406610312312
 21
-37.070552360820081
 31
0.0
1001
REVIT
1002
{
1070
     1
1000
253279
1002
}
1002
{
1070
     2
1000
-2002000
1002
}
1002
{
1070
     3
1000
206783
1002
}
  0
LINE
  5
8B
  8
0
 10
7.727406610312312
 20
-37.070552360820081
 30
0.0
 11
11.2274066103123
 21
-43.132730187311147
 31
0.0
1001
REVIT
1002
{
1070
     1
1000
253281
1002
}
1002
{
1070
     2
1000
-2002000
1002
}
1002
{
1070
     3
1000
206783
1002
}
  0
ENDSEC
  0
EOF
