  0
SECTION
  2
HEADER
  9
$ACADVER
  1
AC1009
  9
$INSBASE
 10
0.0
 20
0.0
 30
0.0
  9
$EXTMIN
 10
-23.819732670191652
 20
-20.270084765999972
 30
0.0
  9
$EXTMAX
 10
110.5440361058196
 20
129.96305091510479
 30
0.0
  9
$LIMMIN
 10
0.0
 20
0.0
  9
$LIMMAX
 10
12.0
 20
9.0
  9
$ORTHOMODE
 70
     0
  9
$REGENMODE
 70
     1
  9
$FILLMODE
 70
     1
  9
$QTEXTMODE
 70
     0
  9
$MIRRTEXT
 70
     0
  9
$DRAGMODE
 70
     2
  9
$LTSCALE
 40
1.0
  9
$OSMODE
 70
   127
  9
$ATTMODE
 70
     1
  9
$TEXTSIZE
 40
0.2
  9
$TRACEWID
 40
0.05
  9
$TEXTSTYLE
  7
STANDARD
  9
$CLAYER
  8
0
  9
$CELTYPE
  6
BYLAYER
  9
$CECOLOR
 62
   256
  9
$DIMSCALE
 40
1.0
  9
$DIMASZ
 40
0.18
  9
$DIMEXO
 40
0.0625
  9
$DIMDLI
 40
0.38
  9
$DIMRND
 40
0.0
  9
$DIMDLE
 40
0.0
  9
$DIMEXE
 40
0.18
  9
$DIMTP
 40
0.0
  9
$DIMTM
 40
0.0
  9
$DIMTXT
 40
0.18
  9
$DIMCEN
 40
0.09
  9
$DIMTSZ
 40
0.0
  9
$DIMTOL
 70
     0
  9
$DIMLIM
 70
     0
  9
$DIMTIH
 70
     1
  9
$DIMTOH
 70
     1
  9
$DIMSE1
 70
     0
  9
$DIMSE2
 70
     0
  9
$DIMTAD
 70
     0
  9
$DIMZIN
 70
     0
  9
$DIMBLK
  1

  9
$DIMASO
 70
     1
  9
$DIMSHO
 70
     1
  9
$DIMPOST
  1

  9
$DIMAPOST
  1

  9
$DIMALT
 70
     0
  9
$DIMALTD
 70
     2
  9
$DIMALTF
 40
25.399999999999999
  9
$DIMLFAC
 40
1.0
  9
$DIMTOFL
 70
     0
  9
$DIMTVP
 40
0.0
  9
$DIMTIX
 70
     0
  9
$DIMSOXD
 70
     0
  9
$DIMSAH
 70
     0
  9
$DIMBLK1
  1

  9
$DIMBLK2
  1

  9
$DIMSTYLE
  2
STANDARD
  9
$DIMCLRD
 70
     0
  9
$DIMCLRE
 70
     0
  9
$DIMCLRT
 70
     0
  9
$DIMTFAC
 40
1.0
  9
$DIMGAP
 40
0.09
  9
$LUNITS
 70
     2
  9
$LUPREC
 70
     4
  9
$SKETCHINC
 40
0.1
  9
$FILLETRAD
 40
0.0
  9
$AUNITS
 70
     0
  9
$AUPREC
 70
     0
  9
$MENU
  1
.
  9
$ELEVATION
 40
0.0
  9
$PELEVATION
 40
0.0
  9
$THICKNESS
 40
0.0
  9
$LIMCHECK
 70
     0
  9
$BLIPMODE
 70
     0
  9
$CHAMFERA
 40
0.0
  9
$CHAMFERB
 40
0.0
  9
$SKPOLY
 70
     0
  9
$TDCREATE
 40
2457375.5634364928
  9
$TDUPDATE
 40
2457378.9867390511
  9
$TDINDWG
 40
0.0001281366
  9
$TDUSRTIMER
 40
0.0001281366
  9
$USRTIMER
 70
     1
  9
$ANGBASE
 50
0.0
  9
$ANGDIR
 70
     0
  9
$PDMODE
 70
     0
  9
$PDSIZE
 40
0.0
  9
$PLINEWID
 40
0.0
  9
$COORDS
 70
     2
  9
$SPLFRAME
 70
     0
  9
$SPLINETYPE
 70
     6
  9
$SPLINESEGS
 70
     8
  9
$ATTDIA
 70
     0
  9
$ATTREQ
 70
     0
  9
$HANDLING
 70
     1
  9
$HANDSEED
  5
25B
  9
$SURFTAB1
 70
     6
  9
$SURFTAB2
 70
     6
  9
$SURFTYPE
 70
     6
  9
$SURFU
 70
     6
  9
$SURFV
 70
     6
  9
$UCSNAME
  2

  9
$UCSORG
 10
0.0
 20
0.0
 30
0.0
  9
$UCSXDIR
 10
1.0
 20
0.0
 30
0.0
  9
$UCSYDIR
 10
0.0
 20
1.0
 30
0.0
  9
$PUCSNAME
  2

  9
$PUCSORG
 10
0.0
 20
0.0
 30
0.0
  9
$PUCSXDIR
 10
1.0
 20
0.0
 30
0.0
  9
$PUCSYDIR
 10
0.0
 20
1.0
 30
0.0
  9
$USERI1
 70
     0
  9
$USERI2
 70
     0
  9
$USERI3
 70
     0
  9
$USERI4
 70
     0
  9
$USERI5
 70
     0
  9
$USERR1
 40
0.0
  9
$USERR2
 40
0.0
  9
$USERR3
 40
0.0
  9
$USERR4
 40
0.0
  9
$USERR5
 40
0.0
  9
$WORLDVIEW
 70
     1
  9
$SHADEDGE
 70
     3
  9
$SHADEDIF
 70
    70
  9
$TILEMODE
 70
     1
  9
$MAXACTVP
 70
    64
  9
$PLIMCHECK
 70
     0
  9
$PEXTMIN
 10
0.0
 20
0.0
 30
0.0
  9
$PEXTMAX
 10
0.0
 20
0.0
 30
0.0
  9
$PLIMMIN
 10
0.0
 20
0.0
  9
$PLIMMAX
 10
12.0
 20
9.0
  9
$UNITMODE
 70
     0
  9
$VISRETAIN
 70
     1
  9
$PLINEGEN
 70
     0
  9
$PSLTSCALE
 70
     1
  0
ENDSEC
  0
SECTION
  2
TABLES
  0
TABLE
  2
VPORT
 70
     1
  0
VPORT
  2
*ACTIVE
 70
     0
 10
0.0
 20
0.0
 11
1.0
 21
1.0
 12
142.9710438021327
 22
54.456021841493332
 13
0.0
 23
0.0
 14
1.0
 24
1.0
 15
0.0
 25
0.0
 16
0.0
 26
0.0
 36
1.0
 17
0.0
 27
0.0
 37
0.0
 40
124.0309111428199
 41
1.7244755244755241
 42
50.0
 43
0.0
 44
0.0
 50
0.0
 51
0.0
 71
     0
 72
  1000
 73
     1
 74
     3
 75
     0
 76
     0
 77
     0
 78
     0
  0
ENDTAB
  0
TABLE
  2
LTYPE
 70
     1
  0
LTYPE
  2
CONTINUOUS
 70
     0
  3
Solid line
 72
    65
 73
     0
 40
0.0
  0
ENDTAB
  0
TABLE
  2
LAYER
 70
     5
  0
LAYER
  2
0
 70
     0
 62
     7
  6
CONTINUOUS
  0
LAYER
  2
DEFPOINTS
 70
     0
 62
     7
  6
CONTINUOUS
  0
ENDTAB
  0
TABLE
  2
STYLE
 70
     3
  0
STYLE
  2
STANDARD
 70
     0
 40
0.0
 41
1.0
 50
0.0
 71
     0
 42
0.2
  3
txt
  4

  0
STYLE
  2
ARIAL
 70
     0
 40
2.9505988023952101
 41
1.0
 50
0.0
 71
     0
 42
0.2
  3
txt
  4

  0
ENDTAB
  0
TABLE
  2
VIEW
 70
     0
  0
ENDTAB
  0
TABLE
  2
UCS
 70
     0
  0
ENDTAB
  0
TABLE
  2
APPID
 70
     5
  0
APPID
  2
ACAD
 70
     0
  0
APPID
  2
ACADANNOTATIVE
 70
     0
  0
APPID
  2
REVIT
 70
     0
  0
APPID
  2
ACAD_NAV_VCDISPLAY
 70
     0
  0
APPID
  2
ACAD_MLEADERVER
 70
     0
  0
ENDTAB
  0
TABLE
  2
DIMSTYLE
 70
     4
  0
DIMSTYLE
  2
STANDARD
 70
     0
  3

  4

  5

  6

  7

 40
1.0
 41
0.18
 42
0.0625
 43
0.38
 44
0.18
 45
0.0
 46
0.0
 47
0.0
 48
0.0
140
0.18
141
0.09
142
0.0
143
25.399999999999999
144
1.0
145
0.0
146
1.0
147
0.09
 71
     0
 72
     0
 73
     1
 74
     1
 75
     0
 76
     0
 77
     0
 78
     0
170
     0
171
     2
172
     0
173
     0
174
     0
175
     0
176
     0
177
     0
178
     0
  0
DIMSTYLE
  2
LINEAR
 70
     0
  3
<>
  4

  5

  6
OBLIQUE
  7
OBLIQUE
 40
304.80000000000001
 41
0.0065616797900262
 42
0.0065616797900262
 43
0.38
 44
0.0065616797900262
 45
0.01
 46
0.0
 47
0.0
 48
0.0
140
3.0
141
0.09
142
0.0
143
25.399999999999999
144
1.0
145
1.0
146
1.0
147
0.0065616797900262
 71
     0
 72
     0
 73
     0
 74
     0
 75
     0
 76
     0
 77
     1
 78
     0
170
     0
171
     2
172
     1
173
     1
174
     1
175
     0
176
     0
177
     0
178
     0
  0
DIMSTYLE
  2
ANGULAR
 70
     0
  3
<>
  4

  5

  6
OBLIQUE
  7
OBLIQUE
 40
304.80000000000001
 41
0.0065616797900262
 42
0.0065616797900262
 43
0.38
 44
0.0065616797900262
 45
0.0
 46
0.0
 47
0.0
 48
0.0
140
3.0
141
0.09
142
0.0
143
25.399999999999999
144
1.0
145
1.0
146
1.0
147
0.0065616797900262
 71
     0
 72
     0
 73
     0
 74
     0
 75
     0
 76
     0
 77
     1
 78
     0
170
     0
171
     2
172
     1
173
     1
174
     1
175
     0
176
     0
177
     0
178
     0
  0
ENDTAB
  0
ENDSEC
  0
SECTION
  2
BLOCKS
  0
BLOCK
  8
0
  2
$MODEL_SPACE
 70
     0
 10
0.0
 20
0.0
 30
0.0
  3
$MODEL_SPACE
  1

  0
ENDBLK
  5
72
  8
0
  0
BLOCK
 67
     1
  8
0
  2
$PAPER_SPACE
 70
     0
 10
0.0
 20
0.0
 30
0.0
  3
$PAPER_SPACE
  1

  0
ENDBLK
  5
76
 67
     1
  8
0
  0
BLOCK
  8
0
  2
_OBLIQUE
 70
     0
 10
0.0
 20
0.0
 30
0.0
  3
_OBLIQUE
  1

  0
LINE
  5
9F
  8
0
  6
BYBLOCK
 62
     0
 10
-0.5
 20
-0.5
 30
0.0
 11
0.5
 21
0.5
 31
0.0
  0
ENDBLK
  5
A1
  8
0
  0
BLOCK
  8
0
  2
DIMBLOCK1-REF__LEVEL
 70
     0
 10
0.0
 20
0.0
 30
0.0
  3
DIMBLOCK1-REF__LEVEL
  1

  0
LINE
  5
18C
  8
0
 62
     0
 10
107.95824966819259
 20
58.999999999999588
 30
0.0
 11
106.5440361058195
 21
58.999999999999588
 31
0.0
  0
LINE
  5
18D
  8
0
 62
     0
 10
107.95824966819259
 20
48.999999999999623
 30
0.0
 11
106.5440361058195
 21
48.999999999999623
 31
0.0
  0
LINE
  5
18E
  8
0
 62
     0
 10
108.5440361058195
 20
58.999999999999588
 30
0.0
 11
108.5440361058195
 21
60.999999999999588
 31
0.0
  0
LINE
  5
18F
  8
0
 62
     0
 10
108.5440361058195
 20
48.999999999999623
 30
0.0
 11
108.5440361058195
 21
46.999999999999609
 31
0.0
  0
LINE
  5
190
  8
0
 62
     0
 10
108.5440361058195
 20
58.999999999999588
 30
0.0
 11
108.5440361058195
 21
48.999999999999623
 31
0.0
  0
INSERT
  5
191
  8
0
 62
     0
  2
_OBLIQUE
 10
108.5440361058195
 20
58.999999999999588
 30
0.0
 41
2.0
 42
2.0
 43
2.0
 50
270.0
  0
INSERT
  5
192
  8
0
 62
     0
  2
_OBLIQUE
 10
108.5440361058195
 20
48.999999999999623
 30
0.0
 41
2.0
 42
2.0
 43
2.0
 50
90.0
  0
INSERT
  5
193
  8
0
  2
*U13
 10
0.0
 20
0.0
 30
0.0
  0
POINT
  5
194
  8
DEFPOINTS
 62
     0
 10
109.95824966819259
 20
58.999999999999588
 30
0.0
  0
POINT
  5
195
  8
DEFPOINTS
 62
     0
 10
109.95824966819259
 20
48.999999999999623
 30
0.0
  0
POINT
  5
196
  8
DEFPOINTS
 62
     0
 10
108.5440361058195
 20
48.999999999999623
 30
0.0
  0
ENDBLK
  5
9C
  8
0
  0
BLOCK
  8
0
  2
DIMBLOCK2-REF__LEVEL
 70
     0
 10
0.0
 20
0.0
 30
0.0
  3
DIMBLOCK2-REF__LEVEL
  1

  0
LINE
  5
183
  8
0
 62
     0
 10
-17.797074762381929
 20
59.000000000000021
 30
0.0
 11
-19.211288324755198
 21
59.000000000000021
 31
0.0
  0
LINE
  5
184
  8
0
 62
     0
 10
-17.797074762381939
 20
-0.000000000000004
 30
0.0
 11
-19.21128832475522
 21
-0.0000000000000036
 31
0.0
  0
LINE
  5
185
  8
0
 62
     0
 10
-17.211288324755198
 20
59.000000000000021
 30
0.0
 11
-17.21128832475522
 21
-0.0000000000000042
 31
0.0
  0
INSERT
  5
186
  8
0
 62
     0
  2
_OBLIQUE
 10
-17.211288324755198
 20
59.000000000000021
 30
0.0
 41
2.0
 42
2.0
 43
2.0
 50
90.0
  0
INSERT
  5
187
  8
0
 62
     0
  2
_OBLIQUE
 10
-17.21128832475522
 20
-0.0000000000000042
 30
0.0
 41
2.0
 42
2.0
 43
2.0
 50
270.0
  0
INSERT
  5
188
  8
0
  2
*U12
 10
0.0
 20
0.0
 30
0.0
  0
POINT
  5
189
  8
DEFPOINTS
 62
     0
 10
-15.79707476238193
 20
59.000000000000007
 30
0.0
  0
POINT
  5
18A
  8
DEFPOINTS
 62
     0
 10
-15.79707476238193
 20
-0.0000000000000046
 30
0.0
  0
POINT
  5
18B
  8
DEFPOINTS
 62
     0
 10
-17.21128832475522
 20
-0.0000000000000042
 30
0.0
  0
ENDBLK
  5
BF
  8
0
  0
BLOCK
  8
0
  2
DIMBLOCK3-REF__LEVEL
 70
     0
 10
0.0
 20
0.0
 30
0.0
  3
DIMBLOCK3-REF__LEVEL
  1

  0
LINE
  5
178
  8
0
 62
     0
 10
-0.0000000000000001
 20
122.7688201320414
 30
0.0
 11
-0.0000000000000002
 21
121.35460656966831
 31
0.0
  0
LINE
  5
179
  8
0
 62
     0
 10
2.9999999999999991
 20
122.7688201320414
 30
0.0
 11
2.9999999999999991
 21
121.35460656966831
 31
0.0
  0
LINE
  5
17A
  8
0
 62
     0
 10
-0.0000000000000001
 20
123.35460656966831
 30
0.0
 11
-2.0
 21
123.35460656966831
 31
0.0
  0
LINE
  5
17B
  8
0
 62
     0
 10
2.9999999999999991
 20
123.35460656966831
 30
0.0
 11
5.0
 21
123.35460656966831
 31
0.0
  0
LINE
  5
17C
  8
0
 62
     0
 10
-0.0000000000000001
 20
123.35460656966831
 30
0.0
 11
2.9999999999999991
 21
123.35460656966831
 31
0.0
  0
INSERT
  5
17D
  8
0
 62
     0
  2
_OBLIQUE
 10
-0.0000000000000001
 20
123.35460656966831
 30
0.0
 41
2.0
 42
2.0
 43
2.0
  0
INSERT
  5
17E
  8
0
 62
     0
  2
_OBLIQUE
 10
2.9999999999999991
 20
123.35460656966831
 30
0.0
 41
2.0
 42
2.0
 43
2.0
 50
180.0
  0
INSERT
  5
17F
  8
0
  2
*U11
 10
0.0
 20
0.0
 30
0.0
  0
POINT
  5
180
  8
DEFPOINTS
 62
     0
 10
0.0
 20
124.7688201320414
 30
0.0
  0
POINT
  5
181
  8
DEFPOINTS
 62
     0
 10
2.9999999999999991
 20
124.7688201320414
 30
0.0
  0
POINT
  5
182
  8
DEFPOINTS
 62
     0
 10
2.9999999999999991
 20
123.35460656966831
 30
0.0
  0
ENDBLK
  5
D9
  8
0
  0
BLOCK
  8
0
  2
DIMBLOCK4-REF__LEVEL
 70
     0
 10
0.0
 20
0.0
 30
0.0
  3
DIMBLOCK4-REF__LEVEL
  1

  0
LINE
  5
16D
  8
0
 62
     0
 10
31.9437006149609
 20
1.9766096018217061
 30
0.0
 11
44.755357658103343
 21
1.9766096018217021
 31
0.0
  0
LINE
  5
16E
  8
0
 62
     0
 10
31.943700614960889
 20
-8.023390398178293
 30
0.0
 11
44.755357658103343
 21
-8.0233903981782984
 31
0.0
  0
LINE
  5
16F
  8
0
 62
     0
 10
42.755357658103343
 20
1.976609601821703
 30
0.0
 11
42.755357658103343
 21
3.976609601821703
 31
0.0
  0
LINE
  5
170
  8
0
 62
     0
 10
42.755357658103343
 20
-8.0233903981782948
 30
0.0
 11
42.755357658103343
 21
-10.023390398178289
 31
0.0
  0
LINE
  5
171
  8
0
 62
     0
 10
42.755357658103343
 20
1.976609601821703
 30
0.0
 11
42.755357658103343
 21
-8.0233903981782948
 31
0.0
  0
INSERT
  5
172
  8
0
 62
     0
  2
_OBLIQUE
 10
42.755357658103343
 20
1.976609601821703
 30
0.0
 41
2.0
 42
2.0
 43
2.0
 50
270.0
  0
INSERT
  5
173
  8
0
 62
     0
  2
_OBLIQUE
 10
42.755357658103343
 20
-8.0233903981782948
 30
0.0
 41
2.0
 42
2.0
 43
2.0
 50
90.0
  0
INSERT
  5
174
  8
0
  2
*U10
 10
0.0
 20
0.0
 30
0.0
  0
POINT
  5
175
  8
DEFPOINTS
 62
     0
 10
29.9437006149609
 20
1.9766096018217061
 30
0.0
  0
POINT
  5
176
  8
DEFPOINTS
 62
     0
 10
29.943700614960889
 20
-8.023390398178293
 30
0.0
  0
POINT
  5
177
  8
DEFPOINTS
 62
     0
 10
42.755357658103343
 20
-8.0233903981782948
 30
0.0
  0
ENDBLK
  5
F5
  8
0
  0
BLOCK
  8
0
  2
DIMBLOCK5-REF__LEVEL
 70
     0
 10
0.0
 20
0.0
 30
0.0
  3
DIMBLOCK5-REF__LEVEL
  1

  0
LINE
  5
164
  8
0
 62
     0
 10
-0.5176380902052287
 20
-1.931851652578106
 30
0.0
 11
-3.2814918658088521
 21
-12.24669436782165
 31
0.0
  0
LINE
  5
165
  8
0
 62
     0
 10
29.426062524755839
 20
-9.9552420507564232
 30
0.0
 11
26.66220874915221
 21
-20.270084765999972
 31
0.0
  0
LINE
  5
166
  8
0
 62
     0
 10
-2.7638537756037991
 20
-10.31484271524352
 30
0.0
 11
27.179846839357271
 21
-18.33823311342184
 31
0.0
  0
INSERT
  5
167
  8
0
 62
     0
  2
_OBLIQUE
 10
-2.7638537756037991
 20
-10.31484271524352
 30
0.0
 41
2.0
 42
2.0
 43
2.0
 50
164.9999999999996
  0
INSERT
  5
168
  8
0
 62
     0
  2
_OBLIQUE
 10
27.179846839357271
 20
-18.33823311342184
 30
0.0
 41
2.0
 42
2.0
 43
2.0
 50
344.99999999999972
  0
INSERT
  5
169
  8
0
  2
*U9
 10
0.0
 20
0.0
 30
0.0
  0
POINT
  5
16A
  8
DEFPOINTS
 62
     0
 10
-0.0000000000001755
 20
0.0000000000000275
 30
0.0
  0
POINT
  5
16B
  8
DEFPOINTS
 62
     0
 10
29.943700614960889
 20
-8.023390398178293
 30
0.0
  0
POINT
  5
16C
  8
DEFPOINTS
 62
     0
 10
27.179846839357271
 20
-18.33823311342184
 30
0.0
  0
ENDBLK
  5
111
  8
0
  0
BLOCK
  8
0
  2
DIMBLOCK6-REF__LEVEL
 70
     0
 10
0.0
 20
0.0
 30
0.0
  3
DIMBLOCK6-REF__LEVEL
  1

  0
LINE
  5
15A
  8
0
 62
     0
 10
61.9192864995657
 20
-16.591222813470189
 30
0.0
 11
58.055583194409436
 21
-15.555946633060101
 31
0.0
  0
LINE
  5
15B
  8
0
 62
     0
 10
64.103562420988055
 20
-0.0000000000000071
 30
0.0
 11
60.103562420988069
 21
-0.0000000000000071
 31
0.0
  0
ARC
  5
15C
  8
0
 62
     0
 10
0.0
 20
0.0
 30
0.0
 40
62.103562420988069
 50
344.99999999999977
 51
0.0
  0
INSERT
  5
15D
  8
0
 62
     0
  2
_OBLIQUE
 10
59.987434846987561
 20
-16.073584723265139
 30
0.0
 41
2.0
 42
2.0
 43
2.0
 50
254.9999999999998
  0
INSERT
  5
15E
  8
0
 62
     0
  2
_OBLIQUE
 10
62.103562420988069
 20
-0.0000000000000213
 30
0.0
 41
2.0
 42
2.0
 43
2.0
 50
90.0
  0
INSERT
  5
15F
  8
0
  2
*U8
 10
0.0
 20
0.0
 30
0.0
  0
POINT
  5
160
  8
DEFPOINTS
 62
     0
 10
0.0
 20
0.0
 30
0.0
  0
POINT
  5
161
  8
DEFPOINTS
 62
     0
 10
63.851138152143839
 20
-17.108860903675239
 30
0.0
  0
POINT
  5
162
  8
DEFPOINTS
 62
     0
 10
66.103562420988069
 20
-0.0000000000000071
 30
0.0
  0
POINT
  5
163
  8
DEFPOINTS
 62
     0
 10
61.160069761866637
 20
-10.784170441029209
 30
0.0
  0
ENDBLK
  5
12D
  8
0
  0
BLOCK
  8
0
  2
*U8
 70
     1
 10
0.0
 20
0.0
 30
0.0
  3
*U8
  1

  0
TEXT
  5
244
  8
0
 62
     0
 10
58.741298010554061
 20
-13.8550669235343
 30
0.0
 40
2.9505988023952101
  1
15.00°
 50
82.499999999999844
  7
ARIAL
  0
ENDBLK
  5
246
  8
0
  0
BLOCK
  8
0
  2
*U9
 70
     1
 10
0.0
 20
0.0
 30
0.0
  3
*U9
  1

  0
TEXT
  5
248
  8
0
 62
     0
 10
7.7706340296670371
 20
-11.00657094109429
 30
0.0
 40
2.9505988023952101
  1
31.00
 50
344.99999999999972
  7
ARIAL
  0
ENDBLK
  5
24A
  8
0
  0
BLOCK
  8
0
  2
*U10
 70
     1
 10
0.0
 20
0.0
 30
0.0
  3
*U10
  1

  0
TEXT
  5
24C
  8
0
 62
     0
 10
40.699002428589658
 20
-8.306693165086493
 30
0.0
 40
2.9505988023952101
  1
10.00
 50
90.0
  7
ARIAL
  0
ENDBLK
  5
24E
  8
0
  0
BLOCK
  8
0
  2
*U11
 70
     1
 10
0.0
 20
0.0
 30
0.0
  3
*U11
  1

  0
TEXT
  5
250
  8
0
 62
     0
 10
-2.4992086087034671
 20
125.4129744859503
 30
0.0
 40
2.9505988023952101
  1
3.00
  7
ARIAL
  0
ENDBLK
  5
252
  8
0
  0
BLOCK
  8
0
  2
*U12
 70
     1
 10
0.0
 20
0.0
 30
0.0
  3
*U12
  1

  0
TEXT
  5
254
  8
0
 62
     0
 10
-19.267643554268901
 20
24.355572620107669
 30
0.0
 40
2.9505988023952101
  1
59.00
 50
90.0
  7
ARIAL
  0
ENDBLK
  5
256
  8
0
  0
BLOCK
  8
0
  2
*U13
 70
     1
 10
0.0
 20
0.0
 30
0.0
  3
*U13
  1

  0
TEXT
  5
258
  8
0
 62
     0
 10
106.4876808763058
 20
48.716697233091431
 30
0.0
 40
2.9505988023952101
  1
10.00
 50
90.0
  7
ARIAL
  0
ENDBLK
  5
25A
  8
0
  0
ENDSEC
  0
SECTION
  2
ENTITIES
  0
LINE
  5
88
  8
0
 10
-0.0000000000000824
 20
58.99999999999995
 30
0.0
 11
-0.0000000000001777
 21
0.0000000000000338
 31
0.0
1001
REVIT
1002
{
1070
     1
1000
319781
1002
}
1002
{
1070
     2
1000
-2002000
1002
}
1002
{
1070
     3
1000
206783
1002
}
  0
LINE
  5
89
  8
0
 10
-0.0000000000000824
 20
58.99999999999995
 30
0.0
 11
2.9999999999998939
 21
58.99999999999995
 31
0.0
1001
REVIT
1002
{
1070
     1
1000
319784
1002
}
1002
{
1070
     2
1000
-2002000
1002
}
1002
{
1070
     3
1000
206783
1002
}
  0
LINE
  5
8A
  8
0
 10
2.9999999999998939
 20
58.99999999999995
 30
0.0
 11
2.9999999999998779
 21
48.99999999999995
 31
0.0
1001
REVIT
1002
{
1070
     1
1000
319787
1002
}
1002
{
1070
     2
1000
-2002000
1002
}
1002
{
1070
     3
1000
206783
1002
}
  0
LINE
  5
8B
  8
0
 10
-0.0000000000001755
 20
0.0000000000000283
 30
0.0
 11
29.943700614960878
 21
-8.0233903981782895
 31
0.0
1001
REVIT
1002
{
1070
     1
1000
319795
1002
}
1002
{
1070
     2
1000
-2002000
1002
}
1002
{
1070
     3
1000
206783
1002
}
  0
LINE
  5
8C
  8
0
 10
29.943700614960889
 20
-8.023390398178293
 30
0.0
 11
29.9437006149609
 21
1.9766096018217061
 31
0.0
1001
REVIT
1002
{
1070
     1
1000
319797
1002
}
1002
{
1070
     2
1000
-2002000
1002
}
1002
{
1070
     3
1000
206783
1002
}
  0
ENDSEC
  0
EOF
