  0
SECTION
  2
HEADER
  9
$ACADVER
  1
AC1009
  9
$INSBASE
 10
0.0
 20
0.0
 30
0.0
  9
$EXTMIN
 10
-70.727172893711383
 20
-15.667152681360291
 30
0.0
  9
$EXTMAX
 10
71.747721837090623
 20
26.781075313043861
 30
0.0
  9
$LIMMIN
 10
0.0
 20
0.0
  9
$LIMMAX
 10
12.0
 20
9.0
  9
$ORTHOMODE
 70
     0
  9
$REGENMODE
 70
     1
  9
$FILLMODE
 70
     1
  9
$QTEXTMODE
 70
     0
  9
$MIRRTEXT
 70
     0
  9
$DRAGMODE
 70
     2
  9
$LTSCALE
 40
1.0
  9
$OSMODE
 70
   127
  9
$ATTMODE
 70
     1
  9
$TEXTSIZE
 40
0.2
  9
$TRACEWID
 40
0.05
  9
$TEXTSTYLE
  7
STANDARD
  9
$CLAYER
  8
0
  9
$CELTYPE
  6
BYLAYER
  9
$CECOLOR
 62
   256
  9
$DIMSCALE
 40
1.0
  9
$DIMASZ
 40
0.18
  9
$DIMEXO
 40
0.0625
  9
$DIMDLI
 40
0.38
  9
$DIMRND
 40
0.0
  9
$DIMDLE
 40
0.0
  9
$DIMEXE
 40
0.18
  9
$DIMTP
 40
0.0
  9
$DIMTM
 40
0.0
  9
$DIMTXT
 40
0.18
  9
$DIMCEN
 40
0.09
  9
$DIMTSZ
 40
0.0
  9
$DIMTOL
 70
     0
  9
$DIMLIM
 70
     0
  9
$DIMTIH
 70
     1
  9
$DIMTOH
 70
     1
  9
$DIMSE1
 70
     0
  9
$DIMSE2
 70
     0
  9
$DIMTAD
 70
     0
  9
$DIMZIN
 70
     0
  9
$DIMBLK
  1

  9
$DIMASO
 70
     1
  9
$DIMSHO
 70
     1
  9
$DIMPOST
  1

  9
$DIMAPOST
  1

  9
$DIMALT
 70
     0
  9
$DIMALTD
 70
     2
  9
$DIMALTF
 40
25.399999999999999
  9
$DIMLFAC
 40
1.0
  9
$DIMTOFL
 70
     0
  9
$DIMTVP
 40
0.0
  9
$DIMTIX
 70
     0
  9
$DIMSOXD
 70
     0
  9
$DIMSAH
 70
     0
  9
$DIMBLK1
  1

  9
$DIMBLK2
  1

  9
$DIMSTYLE
  2
STANDARD
  9
$DIMCLRD
 70
     0
  9
$DIMCLRE
 70
     0
  9
$DIMCLRT
 70
     0
  9
$DIMTFAC
 40
1.0
  9
$DIMGAP
 40
0.09
  9
$LUNITS
 70
     2
  9
$LUPREC
 70
     4
  9
$SKETCHINC
 40
0.1
  9
$FILLETRAD
 40
0.0
  9
$AUNITS
 70
     0
  9
$AUPREC
 70
     0
  9
$MENU
  1
.
  9
$ELEVATION
 40
0.0
  9
$PELEVATION
 40
0.0
  9
$THICKNESS
 40
0.0
  9
$LIMCHECK
 70
     0
  9
$BLIPMODE
 70
     0
  9
$CHAMFERA
 40
0.0
  9
$CHAMFERB
 40
0.0
  9
$SKPOLY
 70
     0
  9
$TDCREATE
 40
2457375.5632482641
  9
$TDUPDATE
 40
2457378.9863159149
  9
$TDINDWG
 40
0.0001047338
  9
$TDUSRTIMER
 40
0.0001047338
  9
$USRTIMER
 70
     1
  9
$ANGBASE
 50
0.0
  9
$ANGDIR
 70
     0
  9
$PDMODE
 70
     0
  9
$PDSIZE
 40
0.0
  9
$PLINEWID
 40
0.0
  9
$COORDS
 70
     2
  9
$SPLFRAME
 70
     0
  9
$SPLINETYPE
 70
     6
  9
$SPLINESEGS
 70
     8
  9
$ATTDIA
 70
     0
  9
$ATTREQ
 70
     0
  9
$HANDLING
 70
     1
  9
$HANDSEED
  5
2E2
  9
$SURFTAB1
 70
     6
  9
$SURFTAB2
 70
     6
  9
$SURFTYPE
 70
     6
  9
$SURFU
 70
     6
  9
$SURFV
 70
     6
  9
$UCSNAME
  2

  9
$UCSORG
 10
0.0
 20
0.0
 30
0.0
  9
$UCSXDIR
 10
1.0
 20
0.0
 30
0.0
  9
$UCSYDIR
 10
0.0
 20
1.0
 30
0.0
  9
$PUCSNAME
  2

  9
$PUCSORG
 10
0.0
 20
0.0
 30
0.0
  9
$PUCSXDIR
 10
1.0
 20
0.0
 30
0.0
  9
$PUCSYDIR
 10
0.0
 20
1.0
 30
0.0
  9
$USERI1
 70
     0
  9
$USERI2
 70
     0
  9
$USERI3
 70
     0
  9
$USERI4
 70
     0
  9
$USERI5
 70
     0
  9
$USERR1
 40
0.0
  9
$USERR2
 40
0.0
  9
$USERR3
 40
0.0
  9
$USERR4
 40
0.0
  9
$USERR5
 40
0.0
  9
$WORLDVIEW
 70
     1
  9
$SHADEDGE
 70
     3
  9
$SHADEDIF
 70
    70
  9
$TILEMODE
 70
     1
  9
$MAXACTVP
 70
    64
  9
$PLIMCHECK
 70
     0
  9
$PEXTMIN
 10
0.0
 20
0.0
 30
0.0
  9
$PEXTMAX
 10
0.0
 20
0.0
 30
0.0
  9
$PLIMMIN
 10
0.0
 20
0.0
  9
$PLIMMAX
 10
12.0
 20
9.0
  9
$UNITMODE
 70
     0
  9
$VISRETAIN
 70
     1
  9
$PLINEGEN
 70
     0
  9
$PSLTSCALE
 70
     1
  0
ENDSEC
  0
SECTION
  2
TABLES
  0
TABLE
  2
VPORT
 70
     1
  0
VPORT
  2
*ACTIVE
 70
     0
 10
0.0
 20
0.0
 11
1.0
 21
1.0
 12
0.5102744716896268
 22
15.931211848048701
 13
0.0
 23
0.0
 14
1.0
 24
1.0
 15
0.0
 25
0.0
 16
0.0
 26
0.0
 36
1.0
 17
0.0
 27
0.0
 37
0.0
 40
52.447185075377092
 41
1.7244755244755241
 42
50.0
 43
0.0
 44
0.0
 50
0.0
 51
0.0
 71
     0
 72
  1000
 73
     1
 74
     3
 75
     0
 76
     0
 77
     0
 78
     0
  0
ENDTAB
  0
TABLE
  2
LTYPE
 70
     1
  0
LTYPE
  2
CONTINUOUS
 70
     0
  3
Solid line
 72
    65
 73
     0
 40
0.0
  0
ENDTAB
  0
TABLE
  2
LAYER
 70
     5
  0
LAYER
  2
0
 70
     0
 62
     7
  6
CONTINUOUS
  0
LAYER
  2
DEFPOINTS
 70
     0
 62
     7
  6
CONTINUOUS
  0
ENDTAB
  0
TABLE
  2
STYLE
 70
     3
  0
STYLE
  2
STANDARD
 70
     0
 40
0.0
 41
1.0
 50
0.0
 71
     0
 42
0.2
  3
txt
  4

  0
STYLE
  2
ARIAL
 70
     0
 40
2.9505988023952101
 41
1.0
 50
0.0
 71
     0
 42
0.2
  3
txt
  4

  0
ENDTAB
  0
TABLE
  2
VIEW
 70
     0
  0
ENDTAB
  0
TABLE
  2
UCS
 70
     0
  0
ENDTAB
  0
TABLE
  2
APPID
 70
     5
  0
APPID
  2
ACAD
 70
     0
  0
APPID
  2
ACADANNOTATIVE
 70
     0
  0
APPID
  2
REVIT
 70
     0
  0
APPID
  2
ACAD_NAV_VCDISPLAY
 70
     0
  0
APPID
  2
ACAD_MLEADERVER
 70
     0
  0
ENDTAB
  0
TABLE
  2
DIMSTYLE
 70
     4
  0
DIMSTYLE
  2
STANDARD
 70
     0
  3

  4

  5

  6

  7

 40
1.0
 41
0.18
 42
0.0625
 43
0.38
 44
0.18
 45
0.0
 46
0.0
 47
0.0
 48
0.0
140
0.18
141
0.09
142
0.0
143
25.399999999999999
144
1.0
145
0.0
146
1.0
147
0.09
 71
     0
 72
     0
 73
     1
 74
     1
 75
     0
 76
     0
 77
     0
 78
     0
170
     0
171
     2
172
     0
173
     0
174
     0
175
     0
176
     0
177
     0
178
     0
  0
DIMSTYLE
  2
ANGULAR
 70
     0
  3
<>
  4

  5

  6
OBLIQUE
  7
OBLIQUE
 40
304.80000000000001
 41
0.0065616797900262
 42
0.0065616797900262
 43
0.38
 44
0.0065616797900262
 45
0.0
 46
0.0
 47
0.0
 48
0.0
140
3.0
141
0.09
142
0.0
143
25.399999999999999
144
1.0
145
1.0
146
1.0
147
0.0065616797900262
 71
     0
 72
     0
 73
     0
 74
     0
 75
     0
 76
     0
 77
     1
 78
     0
170
     0
171
     2
172
     1
173
     1
174
     1
175
     0
176
     0
177
     0
178
     0
  0
DIMSTYLE
  2
LINEAR
 70
     0
  3
<>
  4

  5

  6
OBLIQUE
  7
OBLIQUE
 40
304.80000000000001
 41
0.0065616797900262
 42
0.0065616797900262
 43
0.38
 44
0.0065616797900262
 45
0.01
 46
0.0
 47
0.0
 48
0.0
140
3.0
141
0.09
142
0.0
143
25.399999999999999
144
1.0
145
1.0
146
1.0
147
0.0065616797900262
 71
     0
 72
     0
 73
     0
 74
     0
 75
     0
 76
     0
 77
     1
 78
     0
170
     0
171
     2
172
     1
173
     1
174
     1
175
     0
176
     0
177
     0
178
     0
  0
ENDTAB
  0
ENDSEC
  0
SECTION
  2
BLOCKS
  0
BLOCK
  8
0
  2
$MODEL_SPACE
 70
     0
 10
0.0
 20
0.0
 30
0.0
  3
$MODEL_SPACE
  1

  0
ENDBLK
  5
72
  8
0
  0
BLOCK
 67
     1
  8
0
  2
$PAPER_SPACE
 70
     0
 10
0.0
 20
0.0
 30
0.0
  3
$PAPER_SPACE
  1

  0
ENDBLK
  5
76
 67
     1
  8
0
  0
BLOCK
  8
0
  2
_OBLIQUE
 70
     0
 10
0.0
 20
0.0
 30
0.0
  3
_OBLIQUE
  1

  0
LINE
  5
A3
  8
0
  6
BYBLOCK
 62
     0
 10
-0.5
 20
-0.5
 30
0.0
 11
0.5
 21
0.5
 31
0.0
  0
ENDBLK
  5
A5
  8
0
  0
BLOCK
  8
0
  2
DIMBLOCK1-REF__LEVEL
 70
     0
 10
0.0
 20
0.0
 30
0.0
  3
DIMBLOCK1-REF__LEVEL
  1

  0
LINE
  5
208
  8
0
 62
     0
 10
38.285665398594119
 20
-1.030076149819076
 30
0.0
 11
34.131432940066233
 21
-3.526190836434588
 31
0.0
  0
LINE
  5
209
  8
0
 62
     0
 10
56.713883705290947
 20
-1.479987532266825
 30
0.0
 11
62.400282649099523
 21
-8.2567739024744622
 31
0.0
  0
ARC
  5
20A
  8
0
 62
     0
 10
50.286007608425471
 20
6.1804568989228894
 30
0.0
 40
16.846466325916769
 50
211.0000000000006
 51
310.00000000000063
  0
INSERT
  5
20B
  8
0
 62
     0
  2
_OBLIQUE
 10
35.845767541470451
 20
-2.496114686614463
 30
0.0
 41
2.0
 42
2.0
 43
2.0
 50
121.0000000000005
  0
INSERT
  5
20C
  8
0
 62
     0
  2
_OBLIQUE
 10
61.114707429726423
 20
-6.7246850162365224
 30
0.0
 41
2.0
 42
2.0
 43
2.0
 50
40.000000000000568
  0
INSERT
  5
20D
  8
0
  2
*U19
 10
0.0
 20
0.0
 30
0.0
  0
POINT
  5
20E
  8
DEFPOINTS
 62
     0
 10
50.286007608425471
 20
6.1804568989228894
 30
0.0
  0
POINT
  5
20F
  8
DEFPOINTS
 62
     0
 10
39.999999999998352
 20
0.0000000000010472
 30
0.0
  0
POINT
  5
210
  8
DEFPOINTS
 62
     0
 10
55.42830848591786
 20
0.0521013539711177
 30
0.0
  0
POINT
  5
211
  8
DEFPOINTS
 62
     0
 10
42.901002845789897
 20
-8.9610467359905712
 30
0.0
  0
ENDBLK
  5
A0
  8
0
  0
BLOCK
  8
0
  2
DIMBLOCK2-REF__LEVEL
 70
     0
 10
0.0
 20
0.0
 30
0.0
  3
DIMBLOCK2-REF__LEVEL
  1

  0
LINE
  5
1FE
  8
0
 62
     0
 10
47.056164689498416
 20
4.2397714832945601
 30
0.0
 11
43.627495486689988
 21
2.1796191836543168
 31
0.0
  0
LINE
  5
1FF
  8
0
 62
     0
 10
31.768042616972188
 20
-0.0000000000000018
 30
0.0
 11
35.768042616972188
 21
-0.0000000000000018
 31
0.0
  0
ARC
  5
200
  8
0
 62
     0
 10
39.999999999996611
 20
-0.0000000000000018
 30
0.0
 40
6.2319573830244153
 50
31.000000000000519
 51
180.0
  0
INSERT
  5
201
  8
0
 62
     0
  2
_OBLIQUE
 10
45.341830088094213
 20
3.20969533347444
 30
0.0
 41
2.0
 42
2.0
 43
2.0
 50
301.00000000000051
  0
INSERT
  5
202
  8
0
 62
     0
  2
_OBLIQUE
 10
33.768042616972188
 20
0.0
 30
0.0
 41
2.0
 42
2.0
 43
2.0
 50
270.0
  0
INSERT
  5
203
  8
0
  2
*U18
 10
0.0
 20
0.0
 30
0.0
  0
POINT
  5
204
  8
DEFPOINTS
 62
     0
 10
39.999999999996611
 20
-0.0000000000000018
 30
0.0
  0
POINT
  5
205
  8
DEFPOINTS
 62
     0
 10
48.770499290902627
 20
5.2698476331146828
 30
0.0
  0
POINT
  5
206
  8
DEFPOINTS
 62
     0
 10
29.768042616972188
 20
0.0
 30
0.0
  0
POINT
  5
207
  8
DEFPOINTS
 62
     0
 10
41.010685905257873
 20
6.149455815333476
 30
0.0
  0
ENDBLK
  5
C4
  8
0
  0
BLOCK
  8
0
  2
DIMBLOCK3-REF__LEVEL
 70
     0
 10
0.0
 20
0.0
 30
0.0
  3
DIMBLOCK3-REF__LEVEL
  1

  0
LINE
  5
1F3
  8
0
 62
     0
 10
49.255931458605353
 20
7.894791500327103
 30
0.0
 11
40.840213381383762
 21
21.90089842549305
 31
0.0
  0
LINE
  5
1F4
  8
0
 62
     0
 10
38.969923850178219
 20
1.7143346014052641
 30
0.0
 11
30.554205772956649
 21
15.7204415265712
 31
0.0
  0
LINE
  5
1F5
  8
0
 62
     0
 10
41.870289531203881
 20
20.186563824088829
 30
0.0
 11
43.584624132608099
 21
21.216639973908951
 31
0.0
  0
LINE
  5
1F6
  8
0
 62
     0
 10
31.584281922776771
 20
14.006106925166989
 30
0.0
 11
29.86994732137255
 21
12.97603077534686
 31
0.0
  0
LINE
  5
1F7
  8
0
 62
     0
 10
41.870289531203881
 20
20.186563824088829
 30
0.0
 11
31.584281922776771
 21
14.006106925166989
 31
0.0
  0
INSERT
  5
1F8
  8
0
 62
     0
  2
_OBLIQUE
 10
41.870289531203881
 20
20.186563824088829
 30
0.0
 41
2.0
 42
2.0
 43
2.0
 50
211.0000000000006
  0
INSERT
  5
1F9
  8
0
 62
     0
  2
_OBLIQUE
 10
31.584281922776771
 20
14.006106925166989
 30
0.0
 41
2.0
 42
2.0
 43
2.0
 50
31.000000000000519
  0
INSERT
  5
1FA
  8
0
  2
*U17
 10
0.0
 20
0.0
 30
0.0
  0
POINT
  5
1FB
  8
DEFPOINTS
 62
     0
 10
50.286007608425471
 20
6.1804568989228867
 30
0.0
  0
POINT
  5
1FC
  8
DEFPOINTS
 62
     0
 10
39.999999999998352
 20
0.0000000000010481
 30
0.0
  0
POINT
  5
1FD
  8
DEFPOINTS
 62
     0
 10
31.584281922776771
 20
14.006106925166989
 30
0.0
  0
ENDBLK
  5
DF
  8
0
  0
BLOCK
  8
0
  2
DIMBLOCK4-REF__LEVEL
 70
     0
 10
0.0
 20
0.0
 30
0.0
  3
DIMBLOCK4-REF__LEVEL
  1

  0
LINE
  5
1E8
  8
0
 62
     0
 10
56.960397372155789
 20
1.3376765733442111
 30
0.0
 11
66.775674565495379
 21
9.5736720461784053
 31
0.0
  0
LINE
  5
1E9
  8
0
 62
     0
 10
51.818096494663408
 20
7.4660321182959839
 30
0.0
 11
61.63337368800299
 21
15.702027591130181
 31
0.0
  0
LINE
  5
1EA
  8
0
 62
     0
 10
65.243585679257436
 20
8.2880968268053117
 30
0.0
 11
66.529160898630536
 21
6.7560079405673683
 31
0.0
  0
LINE
  5
1EB
  8
0
 62
     0
 10
60.101284801765047
 20
14.41645237175708
 30
0.0
 11
58.81570958239196
 21
15.94854125799503
 31
0.0
  0
LINE
  5
1EC
  8
0
 62
     0
 10
65.243585679257436
 20
8.2880968268053117
 30
0.0
 11
60.101284801765047
 21
14.41645237175708
 31
0.0
  0
INSERT
  5
1ED
  8
0
 62
     0
  2
_OBLIQUE
 10
65.243585679257436
 20
8.2880968268053117
 30
0.0
 41
2.0
 42
2.0
 43
2.0
 50
130.0000000000006
  0
INSERT
  5
1EE
  8
0
 62
     0
  2
_OBLIQUE
 10
60.101284801765047
 20
14.41645237175708
 30
0.0
 41
2.0
 42
2.0
 43
2.0
 50
310.00000000000063
  0
INSERT
  5
1EF
  8
0
  2
*U16
 10
0.0
 20
0.0
 30
0.0
  0
POINT
  5
1F0
  8
DEFPOINTS
 62
     0
 10
55.428308485917853
 20
0.0521013539711177
 30
0.0
  0
POINT
  5
1F1
  8
DEFPOINTS
 62
     0
 10
50.286007608425471
 20
6.1804568989228912
 30
0.0
  0
POINT
  5
1F2
  8
DEFPOINTS
 62
     0
 10
60.101284801765047
 20
14.41645237175708
 30
0.0
  0
ENDBLK
  5
FC
  8
0
  0
BLOCK
  8
0
  2
DIMBLOCK5-REF__LEVEL
 70
     0
 10
0.0
 20
0.0
 30
0.0
  3
DIMBLOCK5-REF__LEVEL
  1

  0
LINE
  5
1DF
  8
0
 62
     0
 10
-39.999999999998117
 20
-1.9999999999989551
 30
0.0
 11
-39.999999999998117
 21
-15.667152681360291
 31
0.0
  0
LINE
  5
1E0
  8
0
 62
     0
 10
39.999999999998352
 20
-1.9999999999989531
 30
0.0
 11
39.999999999998352
 21
-15.667152681360291
 31
0.0
  0
LINE
  5
1E1
  8
0
 62
     0
 10
-39.999999999998117
 20
-13.667152681360291
 30
0.0
 11
39.999999999998352
 21
-13.667152681360291
 31
0.0
  0
INSERT
  5
1E2
  8
0
 62
     0
  2
_OBLIQUE
 10
-39.999999999998117
 20
-13.667152681360291
 30
0.0
 41
2.0
 42
2.0
 43
2.0
 50
180.0
  0
INSERT
  5
1E3
  8
0
 62
     0
  2
_OBLIQUE
 10
39.999999999998352
 20
-13.667152681360291
 30
0.0
 41
2.0
 42
2.0
 43
2.0
  0
INSERT
  5
1E4
  8
0
  2
*U15
 10
0.0
 20
0.0
 30
0.0
  0
POINT
  5
1E5
  8
DEFPOINTS
 62
     0
 10
-39.999999999998117
 20
0.0000000000010448
 30
0.0
  0
POINT
  5
1E6
  8
DEFPOINTS
 62
     0
 10
39.999999999998352
 20
0.0000000000010469
 30
0.0
  0
POINT
  5
1E7
  8
DEFPOINTS
 62
     0
 10
39.999999999998352
 20
-13.667152681360291
 30
0.0
  0
ENDBLK
  5
118
  8
0
  0
BLOCK
  8
0
  2
DIMBLOCK6-REF__LEVEL
 70
     0
 10
0.0
 20
0.0
 30
0.0
  3
DIMBLOCK6-REF__LEVEL
  1

  0
LINE
  5
1D5
  8
0
 62
     0
 10
-56.713883705290947
 20
-1.4799875322666869
 30
0.0
 11
-62.400282649099523
 21
-8.2567739024743183
 31
0.0
  0
LINE
  5
1D6
  8
0
 62
     0
 10
-38.285665398593899
 20
-1.03007614981908
 30
0.0
 11
-34.13143294006624
 21
-3.5261908364344481
 31
0.0
  0
ARC
  5
1D7
  8
0
 62
     0
 10
-50.286007608425471
 20
6.1804568989230244
 30
0.0
 40
16.846466325916751
 50
229.9999999999994
 51
328.99999999999949
  0
INSERT
  5
1D8
  8
0
 62
     0
  2
_OBLIQUE
 10
-61.114707429726423
 20
-6.724685016236374
 30
0.0
 41
2.0
 42
2.0
 43
2.0
 50
139.99999999999929
  0
INSERT
  5
1D9
  8
0
 62
     0
  2
_OBLIQUE
 10
-35.845767541470458
 20
-2.4961146866143271
 30
0.0
 41
2.0
 42
2.0
 43
2.0
 50
58.999999999999467
  0
INSERT
  5
1DA
  8
0
  2
*U14
 10
0.0
 20
0.0
 30
0.0
  0
POINT
  5
1DB
  8
DEFPOINTS
 62
     0
 10
-50.286007608425471
 20
6.1804568989230244
 30
0.0
  0
POINT
  5
1DC
  8
DEFPOINTS
 62
     0
 10
-55.42830848591786
 20
0.0521013539712545
 30
0.0
  0
POINT
  5
1DD
  8
DEFPOINTS
 62
     0
 10
-39.99999999999811
 20
0.0000000000010445
 30
0.0
  0
POINT
  5
1DE
  8
DEFPOINTS
 62
     0
 10
-52.339075398262047
 20
-10.540438421620751
 30
0.0
  0
ENDBLK
  5
134
  8
0
  0
BLOCK
  8
0
  2
DIMBLOCK7-REF__LEVEL
 70
     0
 10
0.0
 20
0.0
 30
0.0
  3
DIMBLOCK7-REF__LEVEL
  1

  0
LINE
  5
1CB
  8
0
 62
     0
 10
-31.768042616971961
 20
0.0
 30
0.0
 11
-35.768042616971961
 21
0.0
 31
0.0
  0
LINE
  5
1CC
  8
0
 62
     0
 10
-47.056164689498189
 20
4.2397714832945601
 30
0.0
 11
-43.62749548668976
 21
2.1796191836543151
 31
0.0
  0
ARC
  5
1CD
  8
0
 62
     0
 10
-39.999999999996369
 20
0.0
 30
0.0
 40
6.2319573830244108
 50
0.0000000000000032
 51
148.99999999999949
  0
INSERT
  5
1CE
  8
0
 62
     0
  2
_OBLIQUE
 10
-33.768042616971947
 20
0.0
 30
0.0
 41
2.0
 42
2.0
 43
2.0
 50
270.0
  0
INSERT
  5
1CF
  8
0
 62
     0
  2
_OBLIQUE
 10
-45.341830088093971
 20
3.2096953334744391
 30
0.0
 41
2.0
 42
2.0
 43
2.0
 50
238.99999999999949
  0
INSERT
  5
1D0
  8
0
  2
*U13
 10
0.0
 20
0.0
 30
0.0
  0
POINT
  5
1D1
  8
DEFPOINTS
 62
     0
 10
-39.999999999996369
 20
0.0
 30
0.0
  0
POINT
  5
1D2
  8
DEFPOINTS
 62
     0
 10
-29.768042616971972
 20
0.0000000000000009
 30
0.0
  0
POINT
  5
1D3
  8
DEFPOINTS
 62
     0
 10
-48.7704992909024
 20
5.2698476331146864
 30
0.0
  0
POINT
  5
1D4
  8
DEFPOINTS
 62
     0
 10
-35.966469205852057
 20
4.7505707190317752
 30
0.0
  0
ENDBLK
  5
151
  8
0
  0
BLOCK
  8
0
  2
DIMBLOCK8-REF__LEVEL
 70
     0
 10
0.0
 20
0.0
 30
0.0
  3
DIMBLOCK8-REF__LEVEL
  1

  0
LINE
  5
1C0
  8
0
 62
     0
 10
-49.255931458605353
 20
7.8947915003272371
 30
0.0
 11
-40.840213381383762
 21
21.900898425493182
 31
0.0
  0
LINE
  5
1C1
  8
0
 62
     0
 10
-38.969923850177992
 20
1.7143346014052581
 30
0.0
 11
-30.554205772956418
 21
15.7204415265712
 31
0.0
  0
LINE
  5
1C2
  8
0
 62
     0
 10
-41.870289531203881
 20
20.186563824088971
 30
0.0
 11
-43.584624132608099
 21
21.216639973909089
 31
0.0
  0
LINE
  5
1C3
  8
0
 62
     0
 10
-31.58428192277654
 20
14.00610692516698
 30
0.0
 11
-29.869947321372319
 21
12.97603077534686
 31
0.0
  0
LINE
  5
1C4
  8
0
 62
     0
 10
-41.870289531203881
 20
20.186563824088971
 30
0.0
 11
-31.58428192277654
 21
14.00610692516698
 31
0.0
  0
INSERT
  5
1C5
  8
0
 62
     0
  2
_OBLIQUE
 10
-41.870289531203881
 20
20.186563824088971
 30
0.0
 41
2.0
 42
2.0
 43
2.0
 50
328.99999999999949
  0
INSERT
  5
1C6
  8
0
 62
     0
  2
_OBLIQUE
 10
-31.58428192277654
 20
14.00610692516698
 30
0.0
 41
2.0
 42
2.0
 43
2.0
 50
148.99999999999949
  0
INSERT
  5
1C7
  8
0
  2
*U12
 10
0.0
 20
0.0
 30
0.0
  0
POINT
  5
1C8
  8
DEFPOINTS
 62
     0
 10
-50.286007608425471
 20
6.1804568989230217
 30
0.0
  0
POINT
  5
1C9
  8
DEFPOINTS
 62
     0
 10
-39.999999999998117
 20
0.0000000000010445
 30
0.0
  0
POINT
  5
1CA
  8
DEFPOINTS
 62
     0
 10
-31.58428192277654
 20
14.00610692516698
 30
0.0
  0
ENDBLK
  5
16C
  8
0
  0
BLOCK
  8
0
  2
DIMBLOCK9-REF__LEVEL
 70
     0
 10
0.0
 20
0.0
 30
0.0
  3
DIMBLOCK9-REF__LEVEL
  1

  0
LINE
  5
1B5
  8
0
 62
     0
 10
-56.960397372155789
 20
1.337676573344349
 30
0.0
 11
-66.775674565495379
 21
9.5736720461785474
 31
0.0
  0
LINE
  5
1B6
  8
0
 62
     0
 10
-51.818096494663408
 20
7.4660321182961162
 30
0.0
 11
-61.63337368800299
 21
15.70202759113031
 31
0.0
  0
LINE
  5
1B7
  8
0
 62
     0
 10
-65.243585679257436
 20
8.2880968268054538
 30
0.0
 11
-66.529160898630522
 21
6.7560079405675104
 31
0.0
  0
LINE
  5
1B8
  8
0
 62
     0
 10
-60.10128480176504
 20
14.41645237175722
 30
0.0
 11
-58.815709582391953
 21
15.94854125799516
 31
0.0
  0
LINE
  5
1B9
  8
0
 62
     0
 10
-65.243585679257436
 20
8.2880968268054538
 30
0.0
 11
-60.10128480176504
 21
14.41645237175722
 31
0.0
  0
INSERT
  5
1BA
  8
0
 62
     0
  2
_OBLIQUE
 10
-65.243585679257436
 20
8.2880968268054538
 30
0.0
 41
2.0
 42
2.0
 43
2.0
 50
49.999999999999432
  0
INSERT
  5
1BB
  8
0
 62
     0
  2
_OBLIQUE
 10
-60.10128480176504
 20
14.41645237175722
 30
0.0
 41
2.0
 42
2.0
 43
2.0
 50
229.9999999999994
  0
INSERT
  5
1BC
  8
0
  2
*U11
 10
0.0
 20
0.0
 30
0.0
  0
POINT
  5
1BD
  8
DEFPOINTS
 62
     0
 10
-55.428308485917853
 20
0.0521013539712563
 30
0.0
  0
POINT
  5
1BE
  8
DEFPOINTS
 62
     0
 10
-50.286007608425471
 20
6.1804568989230217
 30
0.0
  0
POINT
  5
1BF
  8
DEFPOINTS
 62
     0
 10
-60.10128480176504
 20
14.41645237175722
 30
0.0
  0
ENDBLK
  5
188
  8
0
  0
BLOCK
  8
0
  2
*U11
 70
     1
 10
0.0
 20
0.0
 30
0.0
  3
*U11
  1

  0
TEXT
  5
2BF
  8
0
 62
     0
 10
-66.816395884209911
 20
9.6128154416279727
 30
0.0
 40
2.9505988023952101
  1
8.00
 50
49.999999999999361
  7
ARIAL
  0
ENDBLK
  5
2C1
  8
0
  0
BLOCK
  8
0
  2
*U12
 70
     1
 10
0.0
 20
0.0
 30
0.0
  3
*U12
  1

  0
TEXT
  5
2C3
  8
0
 62
     0
 10
-40.196858859752922
 20
21.580077922230291
 30
0.0
 40
2.9505988023952101
  1
12.00
 50
328.99999999999949
  7
ARIAL
  0
ENDBLK
  5
2C5
  8
0
  0
BLOCK
  8
0
  2
*U13
 70
     1
 10
0.0
 20
0.0
 30
0.0
  3
*U13
  1

  0
TEXT
  5
2C7
  8
0
 62
     0
 10
-44.738103048945121
 20
9.9151241486990624
 30
0.0
 40
2.9505988023952101
  1
149.00°
 50
344.49999999999972
  7
ARIAL
  0
ENDBLK
  5
2C9
  8
0
  0
BLOCK
  8
0
  2
*U14
 70
     1
 10
0.0
 20
0.0
 30
0.0
  3
*U14
  1

  0
TEXT
  5
2CB
  8
0
 62
     0
 10
-53.693985128691999
 20
-9.385611999397458
 30
0.0
 40
2.9505988023952101
  1
99.00°
 50
9.4999999999994085
  7
ARIAL
  0
ENDBLK
  5
2CD
  8
0
  0
BLOCK
  8
0
  2
*U15
 70
     1
 10
0.0
 20
0.0
 30
0.0
  3
*U15
  1

  0
TEXT
  5
2CF
  8
0
 62
     0
 10
-5.1424146931238708
 20
-11.610797451846601
 30
0.0
 40
2.9505988023952101
  1
80.00
  7
ARIAL
  0
ENDBLK
  5
2D1
  8
0
  0
BLOCK
  8
0
  2
*U16
 70
     1
 10
0.0
 20
0.0
 30
0.0
  3
*U16
  1

  0
TEXT
  5
2D3
  8
0
 62
     0
 10
61.678993590107787
 20
15.73533308222563
 30
0.0
 40
2.9505988023952101
  1
8.00
 50
310.00000000000063
  7
ARIAL
  0
ENDBLK
  5
2D5
  8
0
  0
BLOCK
  8
0
  2
*U17
 70
     1
 10
0.0
 20
0.0
 30
0.0
  3
*U17
  1

  0
TEXT
  5
2D7
  8
0
 62
     0
 10
31.13951011674768
 20
16.137873749759411
 30
0.0
 40
2.9505988023952101
  1
12.00
 50
31.000000000000519
  7
ARIAL
  0
ENDBLK
  5
2D9
  8
0
  0
BLOCK
  8
0
  2
*U18
 70
     1
 10
0.0
 20
0.0
 30
0.0
  3
*U18
  1

  0
TEXT
  5
2DB
  8
0
 62
     0
 10
30.831986545040529
 20
6.0586167296105859
 30
0.0
 40
2.9505988023952101
  1
149.00°
 50
15.50000000000027
  7
ARIAL
  0
ENDBLK
  5
2DD
  8
0
  0
BLOCK
  8
0
  2
*U19
 70
     1
 10
0.0
 20
0.0
 30
0.0
  3
*U19
  1

  0
TEXT
  5
2DF
  8
0
 62
     0
 10
41.995885234409698
 20
-7.42802144179345
 30
0.0
 40
2.9505988023952101
  1
99.00°
 50
350.50000000000063
  7
ARIAL
  0
ENDBLK
  5
2E1
  8
0
  0
ENDSEC
  0
SECTION
  2
ENTITIES
  0
LINE
  5
88
  8
0
 10
33.768042616972203
 20
0.0000000000010662
 30
0.0
 11
39.999999999998359
 21
0.0000000000010458
 31
0.0
1001
REVIT
1002
{
1070
     1
1000
325879
1002
}
1002
{
1070
     2
1000
-2002000
1002
}
1002
{
1070
     3
1000
206785
1002
}
  0
LINE
  5
89
  8
0
 10
-33.768042616972203
 20
0.0000000000010662
 30
0.0
 11
-39.999999999998131
 21
0.0000000000010458
 31
0.0
1001
REVIT
1002
{
1070
     1
1000
325880
1002
}
1002
{
1070
     2
1000
-2002000
1002
}
1002
{
1070
     3
1000
206785
1002
}
  0
LINE
  5
8A
  8
0
 10
34.999999999998302
 20
0.0000000000010555
 30
0.0
 11
-35.000000000001698
 21
0.0000000000015078
 31
0.0
1001
REVIT
1002
{
1070
     1
1000
325865
1002
}
1002
{
1070
     2
1000
-2002000
1002
}
1002
{
1070
     3
1000
206783
1002
}
  0
LINE
  5
8B
  8
0
 10
39.999999999998352
 20
0.0000000000010465
 30
0.0
 11
50.286007608425471
 21
6.1804568989228912
 31
0.0
1001
REVIT
1002
{
1070
     1
1000
325866
1002
}
1002
{
1070
     2
1000
-2002000
1002
}
1002
{
1070
     3
1000
206783
1002
}
  0
LINE
  5
8C
  8
0
 10
50.286007608425471
 20
6.1804568989228903
 30
0.0
 11
55.428308485917853
 21
0.0521013539711197
 31
0.0
1001
REVIT
1002
{
1070
     1
1000
325867
1002
}
1002
{
1070
     2
1000
-2002000
1002
}
1002
{
1070
     3
1000
206783
1002
}
  0
LINE
  5
8D
  8
0
 10
-39.999999999998117
 20
0.0000000000010452
 30
0.0
 11
-50.286007608425471
 21
6.1804568989230262
 31
0.0
1001
REVIT
1002
{
1070
     1
1000
325873
1002
}
1002
{
1070
     2
1000
-2002000
1002
}
1002
{
1070
     3
1000
206783
1002
}
  0
LINE
  5
8E
  8
0
 10
-50.286007608425471
 20
6.1804568989230226
 30
0.0
 11
-55.428308485917853
 21
0.0521013539712551
 31
0.0
1001
REVIT
1002
{
1070
     1
1000
325874
1002
}
1002
{
1070
     2
1000
-2002000
1002
}
1002
{
1070
     3
1000
206783
1002
}
  0
ENDSEC
  0
EOF
