  0
SECTION
  2
HEADER
  9
$ACADVER
  1
AC1009
  9
$INSBASE
 10
0.0
 20
0.0
 30
0.0
  9
$EXTMIN
 10
-24.39486830848001
 20
-39.045488008461632
 30
0.0
  9
$EXTMAX
 10
70.482623700382831
 20
60.0
 30
0.0
  9
$LIMMIN
 10
0.0
 20
0.0
  9
$LIMMAX
 10
12.0
 20
9.0
  9
$ORTHOMODE
 70
     0
  9
$REGENMODE
 70
     1
  9
$FILLMODE
 70
     1
  9
$QTEXTMODE
 70
     0
  9
$MIRRTEXT
 70
     0
  9
$DRAGMODE
 70
     2
  9
$LTSCALE
 40
1.0
  9
$OSMODE
 70
   127
  9
$ATTMODE
 70
     1
  9
$TEXTSIZE
 40
0.2
  9
$TRACEWID
 40
0.05
  9
$TEXTSTYLE
  7
STANDARD
  9
$CLAYER
  8
0
  9
$CELTYPE
  6
BYLAYER
  9
$CECOLOR
 62
   256
  9
$DIMSCALE
 40
1.0
  9
$DIMASZ
 40
0.18
  9
$DIMEXO
 40
0.0625
  9
$DIMDLI
 40
0.38
  9
$DIMRND
 40
0.0
  9
$DIMDLE
 40
0.0
  9
$DIMEXE
 40
0.18
  9
$DIMTP
 40
0.0
  9
$DIMTM
 40
0.0
  9
$DIMTXT
 40
0.18
  9
$DIMCEN
 40
0.09
  9
$DIMTSZ
 40
0.0
  9
$DIMTOL
 70
     0
  9
$DIMLIM
 70
     0
  9
$DIMTIH
 70
     1
  9
$DIMTOH
 70
     1
  9
$DIMSE1
 70
     0
  9
$DIMSE2
 70
     0
  9
$DIMTAD
 70
     0
  9
$DIMZIN
 70
     0
  9
$DIMBLK
  1

  9
$DIMASO
 70
     1
  9
$DIMSHO
 70
     1
  9
$DIMPOST
  1

  9
$DIMAPOST
  1

  9
$DIMALT
 70
     0
  9
$DIMALTD
 70
     2
  9
$DIMALTF
 40
25.399999999999999
  9
$DIMLFAC
 40
1.0
  9
$DIMTOFL
 70
     0
  9
$DIMTVP
 40
0.0
  9
$DIMTIX
 70
     0
  9
$DIMSOXD
 70
     0
  9
$DIMSAH
 70
     0
  9
$DIMBLK1
  1

  9
$DIMBLK2
  1

  9
$DIMSTYLE
  2
STANDARD
  9
$DIMCLRD
 70
     0
  9
$DIMCLRE
 70
     0
  9
$DIMCLRT
 70
     0
  9
$DIMTFAC
 40
1.0
  9
$DIMGAP
 40
0.09
  9
$LUNITS
 70
     2
  9
$LUPREC
 70
     4
  9
$SKETCHINC
 40
0.1
  9
$FILLETRAD
 40
0.0
  9
$AUNITS
 70
     0
  9
$AUPREC
 70
     0
  9
$MENU
  1
.
  9
$ELEVATION
 40
0.0
  9
$PELEVATION
 40
0.0
  9
$THICKNESS
 40
0.0
  9
$LIMCHECK
 70
     0
  9
$BLIPMODE
 70
     0
  9
$CHAMFERA
 40
0.0
  9
$CHAMFERB
 40
0.0
  9
$SKPOLY
 70
     0
  9
$TDCREATE
 40
2457375.5647559259
  9
$TDUPDATE
 40
2457378.984158264
  9
$TDINDWG
 40
0.0001027662
  9
$TDUSRTIMER
 40
0.0001027662
  9
$USRTIMER
 70
     1
  9
$ANGBASE
 50
0.0
  9
$ANGDIR
 70
     0
  9
$PDMODE
 70
     0
  9
$PDSIZE
 40
0.0
  9
$PLINEWID
 40
0.0
  9
$COORDS
 70
     2
  9
$SPLFRAME
 70
     0
  9
$SPLINETYPE
 70
     6
  9
$SPLINESEGS
 70
     8
  9
$ATTDIA
 70
     0
  9
$ATTREQ
 70
     0
  9
$HANDLING
 70
     1
  9
$HANDSEED
  5
22B
  9
$SURFTAB1
 70
     6
  9
$SURFTAB2
 70
     6
  9
$SURFTYPE
 70
     6
  9
$SURFU
 70
     6
  9
$SURFV
 70
     6
  9
$UCSNAME
  2

  9
$UCSORG
 10
0.0
 20
0.0
 30
0.0
  9
$UCSXDIR
 10
1.0
 20
0.0
 30
0.0
  9
$UCSYDIR
 10
0.0
 20
1.0
 30
0.0
  9
$PUCSNAME
  2

  9
$PUCSORG
 10
0.0
 20
0.0
 30
0.0
  9
$PUCSXDIR
 10
1.0
 20
0.0
 30
0.0
  9
$PUCSYDIR
 10
0.0
 20
1.0
 30
0.0
  9
$USERI1
 70
     0
  9
$USERI2
 70
     0
  9
$USERI3
 70
     0
  9
$USERI4
 70
     0
  9
$USERI5
 70
     0
  9
$USERR1
 40
0.0
  9
$USERR2
 40
0.0
  9
$USERR3
 40
0.0
  9
$USERR4
 40
0.0
  9
$USERR5
 40
0.0
  9
$WORLDVIEW
 70
     1
  9
$SHADEDGE
 70
     3
  9
$SHADEDIF
 70
    70
  9
$TILEMODE
 70
     1
  9
$MAXACTVP
 70
    64
  9
$PLIMCHECK
 70
     0
  9
$PEXTMIN
 10
0.0
 20
0.0
 30
0.0
  9
$PEXTMAX
 10
0.0
 20
0.0
 30
0.0
  9
$PLIMMIN
 10
0.0
 20
0.0
  9
$PLIMMAX
 10
12.0
 20
9.0
  9
$UNITMODE
 70
     0
  9
$VISRETAIN
 70
     1
  9
$PLINEGEN
 70
     0
  9
$PSLTSCALE
 70
     1
  0
ENDSEC
  0
SECTION
  2
TABLES
  0
TABLE
  2
VPORT
 70
     1
  0
VPORT
  2
*ACTIVE
 70
     0
 10
0.0
 20
0.0
 11
1.0
 21
1.0
 12
85.90291066053193
 22
10.703117333945499
 13
0.0
 23
0.0
 14
1.0
 24
1.0
 15
0.0
 25
0.0
 16
0.0
 26
0.0
 36
1.0
 17
0.0
 27
0.0
 37
0.0
 40
81.823308494949714
 41
1.7244755244755241
 42
50.0
 43
0.0
 44
0.0
 50
0.0
 51
0.0
 71
     0
 72
  1000
 73
     1
 74
     3
 75
     0
 76
     0
 77
     0
 78
     0
  0
ENDTAB
  0
TABLE
  2
LTYPE
 70
     1
  0
LTYPE
  2
CONTINUOUS
 70
     0
  3
Solid line
 72
    65
 73
     0
 40
0.0
  0
ENDTAB
  0
TABLE
  2
LAYER
 70
     5
  0
LAYER
  2
0
 70
     0
 62
     7
  6
CONTINUOUS
  0
LAYER
  2
DEFPOINTS
 70
     0
 62
     7
  6
CONTINUOUS
  0
ENDTAB
  0
TABLE
  2
STYLE
 70
     3
  0
STYLE
  2
STANDARD
 70
     0
 40
0.0
 41
1.0
 50
0.0
 71
     0
 42
0.2
  3
txt
  4

  0
STYLE
  2
ARIAL
 70
     0
 40
2.9505988023952101
 41
1.0
 50
0.0
 71
     0
 42
0.2
  3
txt
  4

  0
ENDTAB
  0
TABLE
  2
VIEW
 70
     0
  0
ENDTAB
  0
TABLE
  2
UCS
 70
     0
  0
ENDTAB
  0
TABLE
  2
APPID
 70
     5
  0
APPID
  2
ACAD
 70
     0
  0
APPID
  2
ACADANNOTATIVE
 70
     0
  0
APPID
  2
REVIT
 70
     0
  0
APPID
  2
ACAD_NAV_VCDISPLAY
 70
     0
  0
APPID
  2
ACAD_MLEADERVER
 70
     0
  0
ENDTAB
  0
TABLE
  2
DIMSTYLE
 70
     4
  0
DIMSTYLE
  2
STANDARD
 70
     0
  3

  4

  5

  6

  7

 40
1.0
 41
0.18
 42
0.0625
 43
0.38
 44
0.18
 45
0.0
 46
0.0
 47
0.0
 48
0.0
140
0.18
141
0.09
142
0.0
143
25.399999999999999
144
1.0
145
0.0
146
1.0
147
0.09
 71
     0
 72
     0
 73
     1
 74
     1
 75
     0
 76
     0
 77
     0
 78
     0
170
     0
171
     2
172
     0
173
     0
174
     0
175
     0
176
     0
177
     0
178
     0
  0
DIMSTYLE
  2
LINEAR
 70
     0
  3
<>
  4

  5

  6
OBLIQUE
  7
OBLIQUE
 40
304.80000000000001
 41
0.0065616797900262
 42
0.0065616797900262
 43
0.38
 44
0.0065616797900262
 45
0.01
 46
0.0
 47
0.0
 48
0.0
140
3.0
141
0.09
142
0.0
143
25.399999999999999
144
1.0
145
1.0
146
1.0
147
0.0065616797900262
 71
     0
 72
     0
 73
     0
 74
     0
 75
     0
 76
     0
 77
     1
 78
     0
170
     0
171
     2
172
     1
173
     1
174
     1
175
     0
176
     0
177
     0
178
     0
  0
DIMSTYLE
  2
ANGULAR
 70
     0
  3
<>
  4

  5

  6
OBLIQUE
  7
OBLIQUE
 40
304.80000000000001
 41
0.0065616797900262
 42
0.0065616797900262
 43
0.38
 44
0.0065616797900262
 45
0.0
 46
0.0
 47
0.0
 48
0.0
140
3.0
141
0.09
142
0.0
143
25.399999999999999
144
1.0
145
1.0
146
1.0
147
0.0065616797900262
 71
     0
 72
     0
 73
     0
 74
     0
 75
     0
 76
     0
 77
     1
 78
     0
170
     0
171
     2
172
     1
173
     1
174
     1
175
     0
176
     0
177
     0
178
     0
  0
ENDTAB
  0
ENDSEC
  0
SECTION
  2
BLOCKS
  0
BLOCK
  8
0
  2
$MODEL_SPACE
 70
     0
 10
0.0
 20
0.0
 30
0.0
  3
$MODEL_SPACE
  1

  0
ENDBLK
  5
72
  8
0
  0
BLOCK
 67
     1
  8
0
  2
$PAPER_SPACE
 70
     0
 10
0.0
 20
0.0
 30
0.0
  3
$PAPER_SPACE
  1

  0
ENDBLK
  5
76
 67
     1
  8
0
  0
BLOCK
  8
0
  2
_OBLIQUE
 70
     0
 10
0.0
 20
0.0
 30
0.0
  3
_OBLIQUE
  1

  0
LINE
  5
9E
  8
0
  6
BYBLOCK
 62
     0
 10
-0.5
 20
-0.5
 30
0.0
 11
0.5
 21
0.5
 31
0.0
  0
ENDBLK
  5
A0
  8
0
  0
BLOCK
  8
0
  2
DIMBLOCK1-REF__LEVEL
 70
     0
 10
0.0
 20
0.0
 30
0.0
  3
DIMBLOCK1-REF__LEVEL
  1

  0
LINE
  5
162
  8
0
 62
     0
 10
-18.372210400670301
 20
58.999999999999993
 30
0.0
 11
-19.786423963043561
 21
58.999999999999993
 31
0.0
  0
LINE
  5
163
  8
0
 62
     0
 10
-18.372210400670401
 20
-0.000000000000004
 30
0.0
 11
-19.786423963043571
 21
-0.0000000000000036
 31
0.0
  0
LINE
  5
164
  8
0
 62
     0
 10
-17.786423963043561
 20
58.999999999999993
 30
0.0
 11
-17.786423963043571
 21
-0.0000000000000042
 31
0.0
  0
INSERT
  5
165
  8
0
 62
     0
  2
_OBLIQUE
 10
-17.786423963043561
 20
58.999999999999993
 30
0.0
 41
2.0
 42
2.0
 43
2.0
 50
90.0
  0
INSERT
  5
166
  8
0
 62
     0
  2
_OBLIQUE
 10
-17.786423963043571
 20
-0.0000000000000042
 30
0.0
 41
2.0
 42
2.0
 43
2.0
 50
270.0
  0
INSERT
  5
167
  8
0
  2
*U11
 10
0.0
 20
0.0
 30
0.0
  0
POINT
  5
168
  8
DEFPOINTS
 62
     0
 10
-16.372210400670301
 20
58.999999999999993
 30
0.0
  0
POINT
  5
169
  8
DEFPOINTS
 62
     0
 10
-16.372210400670401
 20
-0.0000000000000046
 30
0.0
  0
POINT
  5
16A
  8
DEFPOINTS
 62
     0
 10
-17.786423963043571
 20
-0.0000000000000042
 30
0.0
  0
ENDBLK
  5
9B
  8
0
  0
BLOCK
  8
0
  2
DIMBLOCK2-REF__LEVEL
 70
     0
 10
0.0
 20
0.0
 30
0.0
  3
DIMBLOCK2-REF__LEVEL
  1

  0
LINE
  5
159
  8
0
 62
     0
 10
0.5176380902050531
 20
1.931851652578146
 30
0.0
 11
2.7131804096027201
 21
10.125727138737661
 31
0.0
  0
LINE
  5
15A
  8
0
 62
     0
 10
40.120596968056759
 20
-8.6797291966254342
 30
0.0
 11
42.316139287454433
 21
-0.485853710465916
 31
0.0
  0
LINE
  5
15B
  8
0
 62
     0
 10
2.1955423193976671
 20
8.1938754861595271
 30
0.0
 11
41.798501197249379
 21
-2.4177053630440488
 31
0.0
  0
INSERT
  5
15C
  8
0
 62
     0
  2
_OBLIQUE
 10
2.1955423193976671
 20
8.1938754861595271
 30
0.0
 41
2.0
 42
2.0
 43
2.0
 50
164.9999999999996
  0
INSERT
  5
15D
  8
0
 62
     0
  2
_OBLIQUE
 10
41.798501197249379
 20
-2.4177053630440488
 30
0.0
 41
2.0
 42
2.0
 43
2.0
 50
344.99999999999972
  0
INSERT
  5
15E
  8
0
  2
*U10
 10
0.0
 20
0.0
 30
0.0
  0
POINT
  5
15F
  8
DEFPOINTS
 62
     0
 10
0.0
 20
0.0000000000000127
 30
0.0
  0
POINT
  5
160
  8
DEFPOINTS
 62
     0
 10
39.602958877851712
 20
-10.61158084920357
 30
0.0
  0
POINT
  5
161
  8
DEFPOINTS
 62
     0
 10
41.798501197249379
 20
-2.4177053630440488
 30
0.0
  0
ENDBLK
  5
BC
  8
0
  0
BLOCK
  8
0
  2
DIMBLOCK3-REF__LEVEL
 70
     0
 10
0.0
 20
0.0
 30
0.0
  3
DIMBLOCK3-REF__LEVEL
  1

  0
LINE
  5
150
  8
0
 62
     0
 10
41.602958877851719
 20
-10.61158084920357
 30
0.0
 11
51.434395164464
 21
-10.61158084920357
 31
0.0
  0
LINE
  5
151
  8
0
 62
     0
 10
41.602958877851691
 20
-25.61158084920357
 30
0.0
 11
51.434395164463993
 21
-25.61158084920357
 31
0.0
  0
LINE
  5
152
  8
0
 62
     0
 10
49.434395164464
 20
-10.61158084920357
 30
0.0
 11
49.434395164464
 21
-25.61158084920357
 31
0.0
  0
INSERT
  5
153
  8
0
 62
     0
  2
_OBLIQUE
 10
49.434395164464
 20
-10.61158084920357
 30
0.0
 41
2.0
 42
2.0
 43
2.0
 50
90.0
  0
INSERT
  5
154
  8
0
 62
     0
  2
_OBLIQUE
 10
49.434395164464
 20
-25.61158084920357
 30
0.0
 41
2.0
 42
2.0
 43
2.0
 50
270.0
  0
INSERT
  5
155
  8
0
  2
*U9
 10
0.0
 20
0.0
 30
0.0
  0
POINT
  5
156
  8
DEFPOINTS
 62
     0
 10
39.602958877851719
 20
-10.61158084920357
 30
0.0
  0
POINT
  5
157
  8
DEFPOINTS
 62
     0
 10
39.602958877851691
 20
-25.61158084920357
 30
0.0
  0
POINT
  5
158
  8
DEFPOINTS
 62
     0
 10
49.434395164464
 20
-25.61158084920357
 30
0.0
  0
ENDBLK
  5
D6
  8
0
  0
BLOCK
  8
0
  2
DIMBLOCK4-REF__LEVEL
 70
     0
 10
0.0
 20
0.0
 30
0.0
  3
DIMBLOCK4-REF__LEVEL
  1

  0
LINE
  5
145
  8
0
 62
     0
 10
38.188745315478599
 20
-27.025794411576658
 30
0.0
 11
30.156308300878958
 21
-35.058231426176249
 31
0.0
  0
LINE
  5
146
  8
0
 62
     0
 10
41.724279221411329
 20
-30.56132831750941
 30
0.0
 11
33.691842206811693
 21
-38.593765332109001
 31
0.0
  0
LINE
  5
147
  8
0
 62
     0
 10
31.570521863252061
 20
-33.644017863803157
 30
0.0
 11
30.156308300878969
 21
-32.229804301430072
 31
0.0
  0
LINE
  5
148
  8
0
 62
     0
 10
35.106055769184792
 20
-37.179551769735909
 30
0.0
 11
36.520269331557877
 21
-38.593765332109008
 31
0.0
  0
LINE
  5
149
  8
0
 62
     0
 10
31.570521863252061
 20
-33.644017863803157
 30
0.0
 11
35.106055769184792
 21
-37.179551769735909
 31
0.0
  0
INSERT
  5
14A
  8
0
 62
     0
  2
_OBLIQUE
 10
31.570521863252061
 20
-33.644017863803157
 30
0.0
 41
2.0
 42
2.0
 43
2.0
 50
314.99999999999989
  0
INSERT
  5
14B
  8
0
 62
     0
  2
_OBLIQUE
 10
35.106055769184792
 20
-37.179551769735909
 30
0.0
 41
2.0
 42
2.0
 43
2.0
 50
134.9999999999998
  0
INSERT
  5
14C
  8
0
  2
*U8
 10
0.0
 20
0.0
 30
0.0
  0
POINT
  5
14D
  8
DEFPOINTS
 62
     0
 10
39.602958877851698
 20
-25.611580849203559
 30
0.0
  0
POINT
  5
14E
  8
DEFPOINTS
 62
     0
 10
43.138492783784429
 20
-29.147114755136322
 30
0.0
  0
POINT
  5
14F
  8
DEFPOINTS
 62
     0
 10
35.106055769184792
 20
-37.179551769735909
 30
0.0
  0
ENDBLK
  5
F0
  8
0
  0
BLOCK
  8
0
  2
DIMBLOCK5-REF__LEVEL
 70
     0
 10
0.0
 20
0.0
 30
0.0
  3
DIMBLOCK5-REF__LEVEL
  1

  0
LINE
  5
13B
  8
0
 62
     0
 10
66.149134884235593
 20
-17.72460727224853
 30
0.0
 11
62.285431579079287
 21
-16.689331091838429
 31
0.0
  0
LINE
  5
13C
  8
0
 62
     0
 10
68.482623700382831
 20
0.0000000000000071
 30
0.0
 11
64.482623700382817
 21
0.0000000000000071
 31
0.0
  0
ARC
  5
13D
  8
0
 62
     0
 10
0.0
 20
0.0
 30
0.0
 40
66.482623700382831
 50
344.99999999999989
 51
0.0000000000000799
  0
INSERT
  5
13E
  8
0
 62
     0
  2
_OBLIQUE
 10
64.217283231657404
 20
-17.20696918204348
 30
0.0
 41
2.0
 42
2.0
 43
2.0
 50
254.9999999999998
  0
INSERT
  5
13F
  8
0
 62
     0
  2
_OBLIQUE
 10
66.482623700382817
 20
0.0000000000000266
 30
0.0
 41
2.0
 42
2.0
 43
2.0
 50
90.000000000000071
  0
INSERT
  5
140
  8
0
  2
*U7
 10
0.0
 20
0.0
 30
0.0
  0
POINT
  5
141
  8
DEFPOINTS
 62
     0
 10
0.0
 20
0.0
 30
0.0
  0
POINT
  5
142
  8
DEFPOINTS
 62
     0
 10
68.080986536813725
 20
-18.242245362453581
 30
0.0
  0
POINT
  5
143
  8
DEFPOINTS
 62
     0
 10
70.482623700382831
 20
0.0000000000000089
 30
0.0
  0
POINT
  5
144
  8
DEFPOINTS
 62
     0
 10
65.472603260730168
 20
-11.544586452087881
 30
0.0
  0
ENDBLK
  5
10E
  8
0
  0
BLOCK
  8
0
  2
*U7
 70
     1
 10
0.0
 20
0.0
 30
0.0
  3
*U7
  1

  0
TEXT
  5
218
  8
0
 62
     0
 10
63.082895813651028
 20
-14.42664911783192
 30
0.0
 40
2.9505988023952101
  1
15.00°
 50
82.499999999999915
  7
ARIAL
  0
ENDBLK
  5
21A
  8
0
  0
BLOCK
  8
0
  2
*U8
 70
     1
 10
0.0
 20
0.0
 30
0.0
  3
*U8
  1

  0
TEXT
  5
21C
  8
0
 62
     0
 10
31.965195609173289
 20
-31.130566155089291
 30
0.0
 40
2.9505988023952101
  1
5.00
 50
314.99999999999989
  7
ARIAL
  0
ENDBLK
  5
21E
  8
0
  0
BLOCK
  8
0
  2
*U9
 70
     1
 10
0.0
 20
0.0
 30
0.0
  3
*U9
  1

  0
TEXT
  5
220
  8
0
 62
     0
 10
47.378039934950309
 20
-23.39488361611177
 30
0.0
 40
2.9505988023952101
  1
15.00
 50
90.0
  7
ARIAL
  0
ENDBLK
  5
222
  8
0
  0
BLOCK
  8
0
  2
*U10
 70
     1
 10
0.0
 20
0.0
 30
0.0
  3
*U10
  1

  0
TEXT
  5
224
  8
0
 62
     0
 10
17.617461518339621
 20
6.1904802786421378
 30
0.0
 40
2.9505988023952101
  1
41.00
 50
344.99999999999972
  7
ARIAL
  0
ENDBLK
  5
226
  8
0
  0
BLOCK
  8
0
  2
*U11
 70
     1
 10
0.0
 20
0.0
 30
0.0
  3
*U11
  1

  0
TEXT
  5
228
  8
0
 62
     0
 10
-19.842779192557259
 20
24.355572620107662
 30
0.0
 40
2.9505988023952101
  1
59.00
 50
90.0
  7
ARIAL
  0
ENDBLK
  5
22A
  8
0
  0
ENDSEC
  0
SECTION
  2
ENTITIES
  0
LINE
  5
88
  8
0
 10
0.0
 20
0.000000000000013
 30
0.0
 11
0.0000000000000977
 21
58.99999999999995
 31
0.0
1001
REVIT
1002
{
1070
     1
1000
249423
1002
}
1002
{
1070
     2
1000
-2002000
1002
}
1002
{
1070
     3
1000
206783
1002
}
  0
LINE
  5
89
  8
0
 10
0.0000000000000011
 20
0.0000000000000127
 30
0.0
 11
39.602958877851712
 21
-10.61158084920357
 31
0.0
1001
REVIT
1002
{
1070
     1
1000
249428
1002
}
1002
{
1070
     2
1000
-2002000
1002
}
1002
{
1070
     3
1000
206783
1002
}
  0
LINE
  5
8A
  8
0
 10
39.602958877851719
 20
-10.61158084920357
 30
0.0
 11
39.602958877851691
 21
-25.61158084920357
 31
0.0
1001
REVIT
1002
{
1070
     1
1000
249432
1002
}
1002
{
1070
     2
1000
-2002000
1002
}
1002
{
1070
     3
1000
206783
1002
}
  0
LINE
  5
8B
  8
0
 10
39.602958877851691
 20
-25.611580849203559
 30
0.0
 11
43.138492783784422
 21
-29.147114755136322
 31
0.0
1001
REVIT
1002
{
1070
     1
1000
249434
1002
}
1002
{
1070
     2
1000
-2002000
1002
}
1002
{
1070
     3
1000
206783
1002
}
  0
ENDSEC
  0
EOF
