  0
SECTION
  2
HEADER
  9
$ACADVER
  1
AC1009
  9
$INSBASE
 10
0.0
 20
0.0
 30
0.0
  9
$EXTMIN
 10
-28.405129643462772
 20
-92.859485957759546
 30
0.0
  9
$EXTMAX
 10
105.52134668810061
 20
69.000000000000185
 30
0.0
  9
$LIMMIN
 10
0.0
 20
0.0
  9
$LIMMAX
 10
12.0
 20
9.0
  9
$ORTHOMODE
 70
     0
  9
$REGENMODE
 70
     1
  9
$FILLMODE
 70
     1
  9
$QTEXTMODE
 70
     0
  9
$MIRRTEXT
 70
     0
  9
$DRAGMODE
 70
     2
  9
$LTSCALE
 40
1.0
  9
$OSMODE
 70
   127
  9
$ATTMODE
 70
     1
  9
$TEXTSIZE
 40
0.2
  9
$TRACEWID
 40
0.05
  9
$TEXTSTYLE
  7
STANDARD
  9
$CLAYER
  8
0
  9
$CELTYPE
  6
BYLAYER
  9
$CECOLOR
 62
   256
  9
$DIMSCALE
 40
1.0
  9
$DIMASZ
 40
0.18
  9
$DIMEXO
 40
0.0625
  9
$DIMDLI
 40
0.38
  9
$DIMRND
 40
0.0
  9
$DIMDLE
 40
0.0
  9
$DIMEXE
 40
0.18
  9
$DIMTP
 40
0.0
  9
$DIMTM
 40
0.0
  9
$DIMTXT
 40
0.18
  9
$DIMCEN
 40
0.09
  9
$DIMTSZ
 40
0.0
  9
$DIMTOL
 70
     0
  9
$DIMLIM
 70
     0
  9
$DIMTIH
 70
     1
  9
$DIMTOH
 70
     1
  9
$DIMSE1
 70
     0
  9
$DIMSE2
 70
     0
  9
$DIMTAD
 70
     0
  9
$DIMZIN
 70
     0
  9
$DIMBLK
  1

  9
$DIMASO
 70
     1
  9
$DIMSHO
 70
     1
  9
$DIMPOST
  1

  9
$DIMAPOST
  1

  9
$DIMALT
 70
     0
  9
$DIMALTD
 70
     2
  9
$DIMALTF
 40
25.399999999999999
  9
$DIMLFAC
 40
1.0
  9
$DIMTOFL
 70
     0
  9
$DIMTVP
 40
0.0
  9
$DIMTIX
 70
     0
  9
$DIMSOXD
 70
     0
  9
$DIMSAH
 70
     0
  9
$DIMBLK1
  1

  9
$DIMBLK2
  1

  9
$DIMSTYLE
  2
STANDARD
  9
$DIMCLRD
 70
     0
  9
$DIMCLRE
 70
     0
  9
$DIMCLRT
 70
     0
  9
$DIMTFAC
 40
1.0
  9
$DIMGAP
 40
0.09
  9
$LUNITS
 70
     2
  9
$LUPREC
 70
     4
  9
$SKETCHINC
 40
0.1
  9
$FILLETRAD
 40
0.0
  9
$AUNITS
 70
     0
  9
$AUPREC
 70
     0
  9
$MENU
  1
.
  9
$ELEVATION
 40
0.0
  9
$PELEVATION
 40
0.0
  9
$THICKNESS
 40
0.0
  9
$LIMCHECK
 70
     0
  9
$BLIPMODE
 70
     0
  9
$CHAMFERA
 40
0.0
  9
$CHAMFERB
 40
0.0
  9
$SKPOLY
 70
     0
  9
$TDCREATE
 40
2457375.5645069908
  9
$TDUPDATE
 40
2457378.983600996
  9
$TDINDWG
 40
0.0001316551
  9
$TDUSRTIMER
 40
0.0001316551
  9
$USRTIMER
 70
     1
  9
$ANGBASE
 50
0.0
  9
$ANGDIR
 70
     0
  9
$PDMODE
 70
     0
  9
$PDSIZE
 40
0.0
  9
$PLINEWID
 40
0.0
  9
$COORDS
 70
     2
  9
$SPLFRAME
 70
     0
  9
$SPLINETYPE
 70
     6
  9
$SPLINESEGS
 70
     8
  9
$ATTDIA
 70
     0
  9
$ATTREQ
 70
     0
  9
$HANDLING
 70
     1
  9
$HANDSEED
  5
27D
  9
$SURFTAB1
 70
     6
  9
$SURFTAB2
 70
     6
  9
$SURFTYPE
 70
     6
  9
$SURFU
 70
     6
  9
$SURFV
 70
     6
  9
$UCSNAME
  2

  9
$UCSORG
 10
0.0
 20
0.0
 30
0.0
  9
$UCSXDIR
 10
1.0
 20
0.0
 30
0.0
  9
$UCSYDIR
 10
0.0
 20
1.0
 30
0.0
  9
$PUCSNAME
  2

  9
$PUCSORG
 10
0.0
 20
0.0
 30
0.0
  9
$PUCSXDIR
 10
1.0
 20
0.0
 30
0.0
  9
$PUCSYDIR
 10
0.0
 20
1.0
 30
0.0
  9
$USERI1
 70
     0
  9
$USERI2
 70
     0
  9
$USERI3
 70
     0
  9
$USERI4
 70
     0
  9
$USERI5
 70
     0
  9
$USERR1
 40
0.0
  9
$USERR2
 40
0.0
  9
$USERR3
 40
0.0
  9
$USERR4
 40
0.0
  9
$USERR5
 40
0.0
  9
$WORLDVIEW
 70
     1
  9
$SHADEDGE
 70
     3
  9
$SHADEDIF
 70
    70
  9
$TILEMODE
 70
     1
  9
$MAXACTVP
 70
    64
  9
$PLIMCHECK
 70
     0
  9
$PEXTMIN
 10
0.0
 20
0.0
 30
0.0
  9
$PEXTMAX
 10
0.0
 20
0.0
 30
0.0
  9
$PLIMMIN
 10
0.0
 20
0.0
  9
$PLIMMAX
 10
12.0
 20
9.0
  9
$UNITMODE
 70
     0
  9
$VISRETAIN
 70
     1
  9
$PLINEGEN
 70
     0
  9
$PSLTSCALE
 70
     1
  0
ENDSEC
  0
SECTION
  2
TABLES
  0
TABLE
  2
VPORT
 70
     1
  0
VPORT
  2
*ACTIVE
 70
     0
 10
0.0
 20
0.0
 11
1.0
 21
1.0
 12
151.0567183499814
 22
-11.42974297887967
 13
0.0
 23
0.0
 14
1.0
 24
1.0
 15
0.0
 25
0.0
 16
0.0
 26
0.0
 36
1.0
 17
0.0
 27
0.0
 37
0.0
 40
133.4978464360801
 41
1.7244755244755241
 42
50.0
 43
0.0
 44
0.0
 50
0.0
 51
0.0
 71
     0
 72
  1000
 73
     1
 74
     3
 75
     0
 76
     0
 77
     0
 78
     0
  0
ENDTAB
  0
TABLE
  2
LTYPE
 70
     1
  0
LTYPE
  2
CONTINUOUS
 70
     0
  3
Solid line
 72
    65
 73
     0
 40
0.0
  0
ENDTAB
  0
TABLE
  2
LAYER
 70
     5
  0
LAYER
  2
0
 70
     0
 62
     7
  6
CONTINUOUS
  0
LAYER
  2
DEFPOINTS
 70
     0
 62
     7
  6
CONTINUOUS
  0
ENDTAB
  0
TABLE
  2
STYLE
 70
     3
  0
STYLE
  2
STANDARD
 70
     0
 40
0.0
 41
1.0
 50
0.0
 71
     0
 42
0.2
  3
txt
  4

  0
STYLE
  2
ARIAL
 70
     0
 40
2.9505988023952101
 41
1.0
 50
0.0
 71
     0
 42
0.2
  3
txt
  4

  0
ENDTAB
  0
TABLE
  2
VIEW
 70
     0
  0
ENDTAB
  0
TABLE
  2
UCS
 70
     0
  0
ENDTAB
  0
TABLE
  2
APPID
 70
     5
  0
APPID
  2
ACAD
 70
     0
  0
APPID
  2
ACADANNOTATIVE
 70
     0
  0
APPID
  2
REVIT
 70
     0
  0
APPID
  2
ACAD_NAV_VCDISPLAY
 70
     0
  0
APPID
  2
ACAD_MLEADERVER
 70
     0
  0
ENDTAB
  0
TABLE
  2
DIMSTYLE
 70
     4
  0
DIMSTYLE
  2
STANDARD
 70
     0
  3

  4

  5

  6

  7

 40
1.0
 41
0.18
 42
0.0625
 43
0.38
 44
0.18
 45
0.0
 46
0.0
 47
0.0
 48
0.0
140
0.18
141
0.09
142
0.0
143
25.399999999999999
144
1.0
145
0.0
146
1.0
147
0.09
 71
     0
 72
     0
 73
     1
 74
     1
 75
     0
 76
     0
 77
     0
 78
     0
170
     0
171
     2
172
     0
173
     0
174
     0
175
     0
176
     0
177
     0
178
     0
  0
DIMSTYLE
  2
LINEAR
 70
     0
  3
<>
  4

  5

  6
OBLIQUE
  7
OBLIQUE
 40
304.80000000000001
 41
0.0065616797900262
 42
0.0065616797900262
 43
0.38
 44
0.0065616797900262
 45
0.01
 46
0.0
 47
0.0
 48
0.0
140
3.0
141
0.09
142
0.0
143
25.399999999999999
144
1.0
145
1.0
146
1.0
147
0.0065616797900262
 71
     0
 72
     0
 73
     0
 74
     0
 75
     0
 76
     0
 77
     1
 78
     0
170
     0
171
     2
172
     1
173
     1
174
     1
175
     0
176
     0
177
     0
178
     0
  0
DIMSTYLE
  2
ANGULAR
 70
     0
  3
<>
  4

  5

  6
OBLIQUE
  7
OBLIQUE
 40
304.80000000000001
 41
0.0065616797900262
 42
0.0065616797900262
 43
0.38
 44
0.0065616797900262
 45
0.0
 46
0.0
 47
0.0
 48
0.0
140
3.0
141
0.09
142
0.0
143
25.399999999999999
144
1.0
145
1.0
146
1.0
147
0.0065616797900262
 71
     0
 72
     0
 73
     0
 74
     0
 75
     0
 76
     0
 77
     1
 78
     0
170
     0
171
     2
172
     1
173
     1
174
     1
175
     0
176
     0
177
     0
178
     0
  0
ENDTAB
  0
ENDSEC
  0
SECTION
  2
BLOCKS
  0
BLOCK
  8
0
  2
$MODEL_SPACE
 70
     0
 10
0.0
 20
0.0
 30
0.0
  3
$MODEL_SPACE
  1

  0
ENDBLK
  5
72
  8
0
  0
BLOCK
 67
     1
  8
0
  2
$PAPER_SPACE
 70
     0
 10
0.0
 20
0.0
 30
0.0
  3
$PAPER_SPACE
  1

  0
ENDBLK
  5
76
 67
     1
  8
0
  0
BLOCK
  8
0
  2
_OBLIQUE
 70
     0
 10
0.0
 20
0.0
 30
0.0
  3
_OBLIQUE
  1

  0
LINE
  5
A2
  8
0
  6
BYBLOCK
 62
     0
 10
-0.5
 20
-0.5
 30
0.0
 11
0.5
 21
0.5
 31
0.0
  0
ENDBLK
  5
A4
  8
0
  0
BLOCK
  8
0
  2
DIMBLOCK1-REF__LEVEL
 70
     0
 10
0.0
 20
0.0
 30
0.0
  3
DIMBLOCK1-REF__LEVEL
  1

  0
LINE
  5
1AC
  8
0
 62
     0
 10
-22.382471735653031
 20
68.000000000000199
 30
0.0
 11
-23.79668529802634
 21
68.000000000000199
 31
0.0
  0
LINE
  5
1AD
  8
0
 62
     0
 10
-22.382471735653251
 20
0.0000000000001906
 30
0.0
 11
-23.79668529802635
 21
0.000000000000191
 31
0.0
  0
LINE
  5
1AE
  8
0
 62
     0
 10
-21.79668529802634
 20
68.000000000000199
 30
0.0
 11
-21.79668529802635
 21
0.0000000000001904
 31
0.0
  0
INSERT
  5
1AF
  8
0
 62
     0
  2
_OBLIQUE
 10
-21.79668529802634
 20
68.000000000000199
 30
0.0
 41
2.0
 42
2.0
 43
2.0
 50
90.0
  0
INSERT
  5
1B0
  8
0
 62
     0
  2
_OBLIQUE
 10
-21.79668529802635
 20
0.0000000000001904
 30
0.0
 41
2.0
 42
2.0
 43
2.0
 50
270.0
  0
INSERT
  5
1B1
  8
0
  2
*U15
 10
0.0
 20
0.0
 30
0.0
  0
POINT
  5
1B2
  8
DEFPOINTS
 62
     0
 10
-20.382471735653041
 20
68.000000000000199
 30
0.0
  0
POINT
  5
1B3
  8
DEFPOINTS
 62
     0
 10
-20.382471735653251
 20
0.00000000000019
 30
0.0
  0
POINT
  5
1B4
  8
DEFPOINTS
 62
     0
 10
-21.79668529802635
 20
0.0000000000001904
 30
0.0
  0
ENDBLK
  5
9F
  8
0
  0
BLOCK
  8
0
  2
DIMBLOCK2-REF__LEVEL
 70
     0
 10
0.0
 20
0.0
 30
0.0
  3
DIMBLOCK2-REF__LEVEL
  1

  0
LINE
  5
1A3
  8
0
 62
     0
 10
-0.000000000000182
 20
-91.445272395386439
 30
0.0
 11
-0.0000000000001821
 21
-92.859485957759546
 31
0.0
  0
LINE
  5
1A4
  8
0
 62
     0
 10
84.999999999999815
 20
-91.445272395386596
 30
0.0
 11
84.999999999999815
 21
-92.859485957759546
 31
0.0
  0
LINE
  5
1A5
  8
0
 62
     0
 10
-0.000000000000182
 20
-90.85948595775956
 30
0.0
 11
84.999999999999815
 21
-90.85948595775956
 31
0.0
  0
INSERT
  5
1A6
  8
0
 62
     0
  2
_OBLIQUE
 10
-0.000000000000182
 20
-90.85948595775956
 30
0.0
 41
2.0
 42
2.0
 43
2.0
 50
180.0
  0
INSERT
  5
1A7
  8
0
 62
     0
  2
_OBLIQUE
 10
84.999999999999815
 20
-90.85948595775956
 30
0.0
 41
2.0
 42
2.0
 43
2.0
  0
INSERT
  5
1A8
  8
0
  2
*U14
 10
0.0
 20
0.0
 30
0.0
  0
POINT
  5
1A9
  8
DEFPOINTS
 62
     0
 10
-0.0000000000001819
 20
-89.445272395386453
 30
0.0
  0
POINT
  5
1AA
  8
DEFPOINTS
 62
     0
 10
84.999999999999815
 20
-89.445272395386596
 30
0.0
  0
POINT
  5
1AB
  8
DEFPOINTS
 62
     0
 10
84.999999999999815
 20
-90.85948595775956
 30
0.0
  0
ENDBLK
  5
C0
  8
0
  0
BLOCK
  8
0
  2
DIMBLOCK3-REF__LEVEL
 70
     0
 10
0.0
 20
0.0
 30
0.0
  3
DIMBLOCK3-REF__LEVEL
  1

  0
LINE
  5
19A
  8
0
 62
     0
 10
86.999999999999915
 20
-23.507732164214321
 30
0.0
 11
97.973894889031598
 21
-23.507732164214332
 31
0.0
  0
LINE
  5
19B
  8
0
 62
     0
 10
86.999999999999901
 20
-39.507732164214438
 30
0.0
 11
97.973894889031584
 21
-39.507732164214438
 31
0.0
  0
LINE
  5
19C
  8
0
 62
     0
 10
95.973894889031584
 20
-23.507732164214332
 30
0.0
 11
95.973894889031584
 21
-39.507732164214438
 31
0.0
  0
INSERT
  5
19D
  8
0
 62
     0
  2
_OBLIQUE
 10
95.973894889031584
 20
-23.507732164214332
 30
0.0
 41
2.0
 42
2.0
 43
2.0
 50
90.0
  0
INSERT
  5
19E
  8
0
 62
     0
  2
_OBLIQUE
 10
95.973894889031584
 20
-39.507732164214438
 30
0.0
 41
2.0
 42
2.0
 43
2.0
 50
270.0
  0
INSERT
  5
19F
  8
0
  2
*U13
 10
0.0
 20
0.0
 30
0.0
  0
POINT
  5
1A0
  8
DEFPOINTS
 62
     0
 10
84.999999999999915
 20
-23.507732164214321
 30
0.0
  0
POINT
  5
1A1
  8
DEFPOINTS
 62
     0
 10
84.999999999999915
 20
-39.507732164214438
 30
0.0
  0
POINT
  5
1A2
  8
DEFPOINTS
 62
     0
 10
95.973894889031584
 20
-39.507732164214438
 30
0.0
  0
ENDBLK
  5
DA
  8
0
  0
BLOCK
  8
0
  2
DIMBLOCK4-REF__LEVEL
 70
     0
 10
0.0
 20
0.0
 30
0.0
  3
DIMBLOCK4-REF__LEVEL
  1

  0
LINE
  5
18F
  8
0
 62
     0
 10
83.585786437626794
 20
-40.921945726587502
 30
0.0
 11
75.262707546085252
 21
-49.245024618129001
 31
0.0
  0
LINE
  5
190
  8
0
 62
     0
 10
87.121320343559503
 20
-44.457479632520261
 30
0.0
 11
78.79824145201799
 21
-52.78055852406176
 31
0.0
  0
LINE
  5
191
  8
0
 62
     0
 10
76.676921108458359
 20
-47.830811055755909
 30
0.0
 11
75.262707546085267
 21
-46.416597493382817
 31
0.0
  0
LINE
  5
192
  8
0
 62
     0
 10
80.212455014391097
 20
-51.366344961688661
 30
0.0
 11
81.626668576764175
 21
-52.780558524061767
 31
0.0
  0
LINE
  5
193
  8
0
 62
     0
 10
76.676921108458359
 20
-47.830811055755909
 30
0.0
 11
80.212455014391097
 21
-51.366344961688661
 31
0.0
  0
INSERT
  5
194
  8
0
 62
     0
  2
_OBLIQUE
 10
76.676921108458359
 20
-47.830811055755909
 30
0.0
 41
2.0
 42
2.0
 43
2.0
 50
314.99999999999989
  0
INSERT
  5
195
  8
0
 62
     0
  2
_OBLIQUE
 10
80.212455014391097
 20
-51.366344961688661
 30
0.0
 41
2.0
 42
2.0
 43
2.0
 50
134.99999999999989
  0
INSERT
  5
196
  8
0
  2
*U12
 10
0.0
 20
0.0
 30
0.0
  0
POINT
  5
197
  8
DEFPOINTS
 62
     0
 10
84.999999999999886
 20
-39.507732164214417
 30
0.0
  0
POINT
  5
198
  8
DEFPOINTS
 62
     0
 10
88.535533905932624
 20
-43.043266070147169
 30
0.0
  0
POINT
  5
199
  8
DEFPOINTS
 62
     0
 10
80.212455014391097
 20
-51.366344961688661
 30
0.0
  0
ENDBLK
  5
F4
  8
0
  0
BLOCK
  8
0
  2
DIMBLOCK5-REF__LEVEL
 70
     0
 10
0.0
 20
0.0
 30
0.0
  3
DIMBLOCK5-REF__LEVEL
  1

  0
LINE
  5
185
  8
0
 62
     0
 10
101.8327016170345
 20
-28.018040968932869
 30
0.0
 11
97.968998311878309
 21
-26.982764788522768
 31
0.0
  0
LINE
  5
186
  8
0
 62
     0
 10
102.0
 20
-0.0000000000001972
 30
0.0
 11
105.52134668810061
 21
-0.0000000000002114
 31
0.0
  0
ARC
  5
187
  8
0
 62
     0
 10
-2.732050807568374
 20
0.000000000000093
 30
0.0
 40
106.25339749566901
 50
344.99999999999977
 51
359.99999999999977
  0
INSERT
  5
188
  8
0
 62
     0
  2
_OBLIQUE
 10
99.900849964456413
 20
-27.50040287872789
 30
0.0
 41
2.0
 42
2.0
 43
2.0
 50
254.9999999999998
  0
INSERT
  5
189
  8
0
 62
     0
  2
_OBLIQUE
 10
103.52134668810061
 20
-0.0000000000002238
 30
0.0
 41
2.0
 42
2.0
 43
2.0
 50
89.999999999999844
  0
INSERT
  5
18A
  8
0
  2
*U11
 10
0.0
 20
0.0
 30
0.0
  0
POINT
  5
18B
  8
DEFPOINTS
 62
     0
 10
-2.732050807568374
 20
0.000000000000093
 30
0.0
  0
POINT
  5
18C
  8
DEFPOINTS
 62
     0
 10
103.7645532696127
 20
-28.535679059137919
 30
0.0
  0
POINT
  5
18D
  8
DEFPOINTS
 62
     0
 10
100.0
 20
-0.0000000000001918
 30
0.0
  0
POINT
  5
18E
  8
DEFPOINTS
 62
     0
 10
101.9071188300543
 20
-18.450708846043192
 30
0.0
  0
ENDBLK
  5
112
  8
0
  0
BLOCK
  8
0
  2
DIMBLOCK6-REF__LEVEL
 70
     0
 10
0.0
 20
0.0
 30
0.0
  3
DIMBLOCK6-REF__LEVEL
  1

  0
LINE
  5
17C
  8
0
 62
     0
 10
-0.0000000000001693
 20
-79.059715008482257
 30
0.0
 11
-0.0000000000001694
 21
-80.473928570855364
 31
0.0
  0
LINE
  5
17D
  8
0
 62
     0
 10
49.999999999999837
 20
-79.059715008482328
 30
0.0
 11
49.999999999999837
 21
-80.473928570855364
 31
0.0
  0
LINE
  5
17E
  8
0
 62
     0
 10
-0.0000000000001693
 20
-78.473928570855364
 30
0.0
 11
49.999999999999837
 21
-78.473928570855364
 31
0.0
  0
INSERT
  5
17F
  8
0
 62
     0
  2
_OBLIQUE
 10
-0.0000000000001693
 20
-78.473928570855364
 30
0.0
 41
2.0
 42
2.0
 43
2.0
 50
180.0
  0
INSERT
  5
180
  8
0
 62
     0
  2
_OBLIQUE
 10
49.999999999999837
 20
-78.473928570855364
 30
0.0
 41
2.0
 42
2.0
 43
2.0
  0
INSERT
  5
181
  8
0
  2
*U10
 10
0.0
 20
0.0
 30
0.0
  0
POINT
  5
182
  8
DEFPOINTS
 62
     0
 10
-0.0000000000001692
 20
-77.059715008482243
 30
0.0
  0
POINT
  5
183
  8
DEFPOINTS
 62
     0
 10
49.999999999999837
 20
-77.059715008482328
 30
0.0
  0
POINT
  5
184
  8
DEFPOINTS
 62
     0
 10
49.999999999999837
 20
-78.473928570855364
 30
0.0
  0
ENDBLK
  5
12E
  8
0
  0
BLOCK
  8
0
  2
DIMBLOCK7-REF__LEVEL
 70
     0
 10
0.0
 20
0.0
 30
0.0
  3
DIMBLOCK7-REF__LEVEL
  1

  0
LINE
  5
173
  8
0
 62
     0
 10
-2.0000000000000422
 20
-5.925602695908557
 30
0.0
 11
-12.174145253394521
 21
-5.9256026959085544
 31
0.0
  0
LINE
  5
174
  8
0
 62
     0
 10
-1.9999999999999929
 20
24.074397304091448
 30
0.0
 11
-12.174145253394521
 21
24.074397304091448
 31
0.0
  0
LINE
  5
175
  8
0
 62
     0
 10
-10.174145253394521
 20
-5.9256026959085544
 30
0.0
 11
-10.174145253394521
 21
24.074397304091448
 31
0.0
  0
INSERT
  5
176
  8
0
 62
     0
  2
_OBLIQUE
 10
-10.174145253394521
 20
-5.9256026959085544
 30
0.0
 41
2.0
 42
2.0
 43
2.0
 50
270.0
  0
INSERT
  5
177
  8
0
 62
     0
  2
_OBLIQUE
 10
-10.174145253394521
 20
24.074397304091448
 30
0.0
 41
2.0
 42
2.0
 43
2.0
 50
90.0
  0
INSERT
  5
178
  8
0
  2
*U9
 10
0.0
 20
0.0
 30
0.0
  0
POINT
  5
179
  8
DEFPOINTS
 62
     0
 10
-0.0000000000000423
 20
-5.925602695908557
 30
0.0
  0
POINT
  5
17A
  8
DEFPOINTS
 62
     0
 10
0.0000000000000063
 20
24.074397304091448
 30
0.0
  0
POINT
  5
17B
  8
DEFPOINTS
 62
     0
 10
-10.174145253394521
 20
24.074397304091448
 30
0.0
  0
ENDBLK
  5
148
  8
0
  0
BLOCK
  8
0
  2
*U9
 70
     1
 10
0.0
 20
0.0
 30
0.0
  3
*U9
  1

  0
TEXT
  5
262
  8
0
 62
     0
 10
-12.232513169676549
 20
3.9289635808149401
 30
0.0
 40
2.9505988023952101
  1
30.00
 50
90.0
  7
ARIAL
  0
ENDBLK
  5
264
  8
0
  0
BLOCK
  8
0
  2
*U10
 70
     1
 10
0.0
 20
0.0
 30
0.0
  3
*U10
  1

  0
TEXT
  5
266
  8
0
 62
     0
 10
19.855572620107498
 20
-76.417573341341651
 30
0.0
 40
2.9505988023952101
  1
50.00
  7
ARIAL
  0
ENDBLK
  5
268
  8
0
  0
BLOCK
  8
0
  2
*U11
 70
     1
 10
0.0
 20
0.0
 30
0.0
  3
*U11
  1

  0
TEXT
  5
26A
  8
0
 62
     0
 10
99.781374318279305
 20
-19.61777678297576
 30
0.0
 40
2.9505988023952101
  1
15.00°
 50
82.499999999999844
  7
ARIAL
  0
ENDBLK
  5
26C
  8
0
  0
BLOCK
  8
0
  2
*U12
 70
     1
 10
0.0
 20
0.0
 30
0.0
  3
*U12
  1

  0
TEXT
  5
26E
  8
0
 62
     0
 10
77.071594854379583
 20
-45.317359347042043
 30
0.0
 40
2.9505988023952101
  1
5.00
 50
314.99999999999989
  7
ARIAL
  0
ENDBLK
  5
270
  8
0
  0
BLOCK
  8
0
  2
*U13
 70
     1
 10
0.0
 20
0.0
 30
0.0
  3
*U13
  1

  0
TEXT
  5
272
  8
0
 62
     0
 10
93.917539659517885
 20
-36.791034931122567
 30
0.0
 40
2.9505988023952101
  1
16.00
 50
90.0
  7
ARIAL
  0
ENDBLK
  5
274
  8
0
  0
BLOCK
  8
0
  2
*U14
 70
     1
 10
0.0
 20
0.0
 30
0.0
  3
*U14
  1

  0
TEXT
  5
276
  8
0
 62
     0
 10
37.357585306875833
 20
-88.803130728245847
 30
0.0
 40
2.9505988023952101
  1
85.00
  7
ARIAL
  0
ENDBLK
  5
278
  8
0
  0
BLOCK
  8
0
  2
*U15
 70
     1
 10
0.0
 20
0.0
 30
0.0
  3
*U15
  1

  0
TEXT
  5
27A
  8
0
 62
     0
 10
-23.853040527540031
 20
28.863623367181251
 30
0.0
 40
2.9505988023952101
  1
68.00
 50
90.0
  7
ARIAL
  0
ENDBLK
  5
27C
  8
0
  0
ENDSEC
  0
SECTION
  2
ENTITIES
  0
LINE
  5
88
  8
0
 10
1.000000000000268
 20
68.000000000000128
 30
0.0
 11
1.000000000000268
 21
0.0000000000000423
 31
0.0
1001
REVIT
1002
{
1070
     1
1000
250143
1002
}
1002
{
1070
     2
1000
-2002000
1002
}
1002
{
1070
     3
1000
206783
1002
}
  0
LINE
  5
89
  8
0
 10
84.999999999999915
 20
-23.507732164214321
 30
0.0
 11
84.999999999999915
 21
-39.507732164214438
 31
0.0
1001
REVIT
1002
{
1070
     1
1000
250145
1002
}
1002
{
1070
     2
1000
-2002000
1002
}
1002
{
1070
     3
1000
206783
1002
}
  0
LINE
  5
8A
  8
0
 10
84.999999999999915
 20
-23.507732164214321
 30
0.0
 11
36.99999999999995
 21
-10.64617092752027
 31
0.0
1001
REVIT
1002
{
1070
     1
1000
250146
1002
}
1002
{
1070
     2
1000
-2002000
1002
}
1002
{
1070
     3
1000
206783
1002
}
  0
LINE
  5
8B
  8
0
 10
47.999999999999929
 20
-12.59361204426278
 30
0.0
 11
1.0000000000002589
 21
0.0000000000000412
 31
0.0
1001
REVIT
1002
{
1070
     1
1000
250148
1002
}
1002
{
1070
     2
1000
-2002000
1002
}
1002
{
1070
     3
1000
206783
1002
}
  0
LINE
  5
8C
  8
0
 10
44.999999999999929
 20
-13.860316827789619
 30
0.0
 11
-0.0000000000000423
 21
-5.925602695908557
 31
0.0
1001
REVIT
1002
{
1070
     1
1000
250149
1002
}
1002
{
1070
     2
1000
-2002000
1002
}
1002
{
1070
     3
1000
206783
1002
}
  0
LINE
  5
8D
  8
0
 10
-0.0000000000000431
 20
-5.925602695908557
 30
0.0
 11
0.0000000000000058
 21
24.074397304091448
 31
0.0
1001
REVIT
1002
{
1070
     1
1000
250151
1002
}
1002
{
1070
     2
1000
-2002000
1002
}
1002
{
1070
     3
1000
206783
1002
}
  0
LINE
  5
8E
  8
0
 10
84.999999999999915
 20
-39.507732164214431
 30
0.0
 11
88.535533905932638
 21
-43.043266070147183
 31
0.0
1001
REVIT
1002
{
1070
     1
1000
250153
1002
}
1002
{
1070
     2
1000
-2002000
1002
}
1002
{
1070
     3
1000
206783
1002
}
  0
LINE
  5
8F
  8
0
 10
44.999999999999929
 20
-13.860316827789619
 30
0.0
 11
47.843088799257167
 21
-16.703405627046859
 31
0.0
1001
REVIT
1002
{
1070
     1
1000
250156
1002
}
1002
{
1070
     2
1000
-2002000
1002
}
1002
{
1070
     3
1000
206783
1002
}
  0
ENDSEC
  0
EOF
