  0
SECTION
  2
HEADER
  9
$ACADVER
  1
AC1009
  9
$INSBASE
 10
0.0
 20
0.0
 30
0.0
  9
$EXTMIN
 10
-0.9999999999999959
 20
-49.003802433213679
 30
0.0
  9
$EXTMAX
 10
97.628071165523934
 20
8.0
 30
0.0
  9
$LIMMIN
 10
0.0
 20
0.0
  9
$LIMMAX
 10
12.0
 20
9.0
  9
$ORTHOMODE
 70
     0
  9
$REGENMODE
 70
     1
  9
$FILLMODE
 70
     1
  9
$QTEXTMODE
 70
     0
  9
$MIRRTEXT
 70
     0
  9
$DRAGMODE
 70
     2
  9
$LTSCALE
 40
1.0
  9
$OSMODE
 70
   127
  9
$ATTMODE
 70
     1
  9
$TEXTSIZE
 40
0.2
  9
$TRACEWID
 40
0.05
  9
$TEXTSTYLE
  7
STANDARD
  9
$CLAYER
  8
0
  9
$CELTYPE
  6
BYLAYER
  9
$CECOLOR
 62
   256
  9
$DIMSCALE
 40
1.0
  9
$DIMASZ
 40
0.18
  9
$DIMEXO
 40
0.0625
  9
$DIMDLI
 40
0.38
  9
$DIMRND
 40
0.0
  9
$DIMDLE
 40
0.0
  9
$DIMEXE
 40
0.18
  9
$DIMTP
 40
0.0
  9
$DIMTM
 40
0.0
  9
$DIMTXT
 40
0.18
  9
$DIMCEN
 40
0.09
  9
$DIMTSZ
 40
0.0
  9
$DIMTOL
 70
     0
  9
$DIMLIM
 70
     0
  9
$DIMTIH
 70
     1
  9
$DIMTOH
 70
     1
  9
$DIMSE1
 70
     0
  9
$DIMSE2
 70
     0
  9
$DIMTAD
 70
     0
  9
$DIMZIN
 70
     0
  9
$DIMBLK
  1

  9
$DIMASO
 70
     1
  9
$DIMSHO
 70
     1
  9
$DIMPOST
  1

  9
$DIMAPOST
  1

  9
$DIMALT
 70
     0
  9
$DIMALTD
 70
     2
  9
$DIMALTF
 40
25.399999999999999
  9
$DIMLFAC
 40
1.0
  9
$DIMTOFL
 70
     0
  9
$DIMTVP
 40
0.0
  9
$DIMTIX
 70
     0
  9
$DIMSOXD
 70
     0
  9
$DIMSAH
 70
     0
  9
$DIMBLK1
  1

  9
$DIMBLK2
  1

  9
$DIMSTYLE
  2
STANDARD
  9
$DIMCLRD
 70
     0
  9
$DIMCLRE
 70
     0
  9
$DIMCLRT
 70
     0
  9
$DIMTFAC
 40
1.0
  9
$DIMGAP
 40
0.09
  9
$LUNITS
 70
     2
  9
$LUPREC
 70
     4
  9
$SKETCHINC
 40
0.1
  9
$FILLETRAD
 40
0.0
  9
$AUNITS
 70
     0
  9
$AUPREC
 70
     0
  9
$MENU
  1
.
  9
$ELEVATION
 40
0.0
  9
$PELEVATION
 40
0.0
  9
$THICKNESS
 40
0.0
  9
$LIMCHECK
 70
     0
  9
$BLIPMODE
 70
     0
  9
$CHAMFERA
 40
0.0
  9
$CHAMFERB
 40
0.0
  9
$SKPOLY
 70
     0
  9
$TDCREATE
 40
2457375.5644249311
  9
$TDUPDATE
 40
2457378.9834030671
  9
$TDINDWG
 40
0.0001171875
  9
$TDUSRTIMER
 40
0.0001171875
  9
$USRTIMER
 70
     1
  9
$ANGBASE
 50
0.0
  9
$ANGDIR
 70
     0
  9
$PDMODE
 70
     0
  9
$PDSIZE
 40
0.0
  9
$PLINEWID
 40
0.0
  9
$COORDS
 70
     2
  9
$SPLFRAME
 70
     0
  9
$SPLINETYPE
 70
     6
  9
$SPLINESEGS
 70
     8
  9
$ATTDIA
 70
     0
  9
$ATTREQ
 70
     0
  9
$HANDLING
 70
     1
  9
$HANDSEED
  5
1DB
  9
$SURFTAB1
 70
     6
  9
$SURFTAB2
 70
     6
  9
$SURFTYPE
 70
     6
  9
$SURFU
 70
     6
  9
$SURFV
 70
     6
  9
$UCSNAME
  2

  9
$UCSORG
 10
0.0
 20
0.0
 30
0.0
  9
$UCSXDIR
 10
1.0
 20
0.0
 30
0.0
  9
$UCSYDIR
 10
0.0
 20
1.0
 30
0.0
  9
$PUCSNAME
  2

  9
$PUCSORG
 10
0.0
 20
0.0
 30
0.0
  9
$PUCSXDIR
 10
1.0
 20
0.0
 30
0.0
  9
$PUCSYDIR
 10
0.0
 20
1.0
 30
0.0
  9
$USERI1
 70
     0
  9
$USERI2
 70
     0
  9
$USERI3
 70
     0
  9
$USERI4
 70
     0
  9
$USERI5
 70
     0
  9
$USERR1
 40
0.0
  9
$USERR2
 40
0.0
  9
$USERR3
 40
0.0
  9
$USERR4
 40
0.0
  9
$USERR5
 40
0.0
  9
$WORLDVIEW
 70
     1
  9
$SHADEDGE
 70
     3
  9
$SHADEDIF
 70
    70
  9
$TILEMODE
 70
     1
  9
$MAXACTVP
 70
    64
  9
$PLIMCHECK
 70
     0
  9
$PEXTMIN
 10
0.0
 20
0.0
 30
0.0
  9
$PEXTMAX
 10
0.0
 20
0.0
 30
0.0
  9
$PLIMMIN
 10
0.0
 20
0.0
  9
$PLIMMAX
 10
12.0
 20
9.0
  9
$UNITMODE
 70
     0
  9
$VISRETAIN
 70
     1
  9
$PLINEGEN
 70
     0
  9
$PSLTSCALE
 70
     1
  0
ENDSEC
  0
SECTION
  2
TABLES
  0
TABLE
  2
VPORT
 70
     1
  0
VPORT
  2
*ACTIVE
 70
     0
 10
0.0
 20
0.0
 11
1.0
 21
1.0
 12
62.31918889768226
 22
-20.501901216606839
 13
0.0
 23
0.0
 14
1.0
 24
1.0
 15
0.0
 25
0.0
 16
0.0
 26
0.0
 36
1.0
 17
0.0
 27
0.0
 37
0.0
 40
47.307653746326771
 41
1.7244755244755241
 42
50.0
 43
0.0
 44
0.0
 50
0.0
 51
0.0
 71
     0
 72
  1000
 73
     1
 74
     3
 75
     0
 76
     0
 77
     0
 78
     0
  0
ENDTAB
  0
TABLE
  2
LTYPE
 70
     2
  0
LTYPE
  2
CONTINUOUS
 70
     0
  3
Solid line
 72
    65
 73
     0
 40
0.0
  0
ENDTAB
  0
TABLE
  2
LAYER
 70
     6
  0
LAYER
  2
0
 70
     0
 62
     7
  6
CONTINUOUS
  0
LAYER
  2
DEFPOINTS
 70
     0
 62
     7
  6
CONTINUOUS
  0
ENDTAB
  0
TABLE
  2
STYLE
 70
     3
  0
STYLE
  2
STANDARD
 70
     0
 40
0.0
 41
1.0
 50
0.0
 71
     0
 42
0.2
  3
txt
  4

  0
STYLE
  2
ARIAL
 70
     0
 40
2.9505988023952101
 41
1.0
 50
0.0
 71
     0
 42
0.2
  3
txt
  4

  0
ENDTAB
  0
TABLE
  2
VIEW
 70
     0
  0
ENDTAB
  0
TABLE
  2
UCS
 70
     0
  0
ENDTAB
  0
TABLE
  2
APPID
 70
     5
  0
APPID
  2
ACAD
 70
     0
  0
APPID
  2
ACADANNOTATIVE
 70
     0
  0
APPID
  2
REVIT
 70
     0
  0
APPID
  2
ACAD_NAV_VCDISPLAY
 70
     0
  0
APPID
  2
ACAD_MLEADERVER
 70
     0
  0
ENDTAB
  0
TABLE
  2
DIMSTYLE
 70
     3
  0
DIMSTYLE
  2
STANDARD
 70
     0
  3

  4

  5

  6

  7

 40
1.0
 41
0.18
 42
0.0625
 43
0.38
 44
0.18
 45
0.0
 46
0.0
 47
0.0
 48
0.0
140
0.18
141
0.09
142
0.0
143
25.399999999999999
144
1.0
145
0.0
146
1.0
147
0.09
 71
     0
 72
     0
 73
     1
 74
     1
 75
     0
 76
     0
 77
     0
 78
     0
170
     0
171
     2
172
     0
173
     0
174
     0
175
     0
176
     0
177
     0
178
     0
  0
DIMSTYLE
  2
LINEAR
 70
     0
  3
<>
  4

  5

  6
OBLIQUE
  7
OBLIQUE
 40
304.80000000000001
 41
0.0065616797900262
 42
0.0065616797900262
 43
0.38
 44
0.0065616797900262
 45
0.01
 46
0.0
 47
0.0
 48
0.0
140
3.0
141
0.09
142
0.0
143
25.399999999999999
144
1.0
145
1.0
146
1.0
147
0.0065616797900262
 71
     0
 72
     0
 73
     0
 74
     0
 75
     0
 76
     0
 77
     1
 78
     0
170
     0
171
     2
172
     1
173
     1
174
     1
175
     0
176
     0
177
     0
178
     0
  0
ENDTAB
  0
ENDSEC
  0
SECTION
  2
BLOCKS
  0
BLOCK
  8
0
  2
$MODEL_SPACE
 70
     0
 10
0.0
 20
0.0
 30
0.0
  3
$MODEL_SPACE
  1

  0
ENDBLK
  5
72
  8
0
  0
BLOCK
 67
     1
  8
0
  2
$PAPER_SPACE
 70
     0
 10
0.0
 20
0.0
 30
0.0
  3
$PAPER_SPACE
  1

  0
ENDBLK
  5
76
 67
     1
  8
0
  0
BLOCK
  8
0
  2
_OBLIQUE
 70
     0
 10
0.0
 20
0.0
 30
0.0
  3
_OBLIQUE
  1

  0
LINE
  5
A1
  8
0
  6
BYBLOCK
 62
     0
 10
-0.5
 20
-0.5
 30
0.0
 11
0.5
 21
0.5
 31
0.0
  0
ENDBLK
  5
A3
  8
0
  0
BLOCK
  8
0
  2
DIMBLOCK1-REF__LEVEL
 70
     0
 10
0.0
 20
0.0
 30
0.0
  3
DIMBLOCK1-REF__LEVEL
  1

  0
LINE
  5
11A
  8
0
 62
     0
 10
0.0000000000000052
 20
-2.0
 30
0.0
 11
0.0000000000000044
 21
-14.141192143912701
 31
0.0
  0
LINE
  5
11B
  8
0
 62
     0
 10
70.000000000000014
 20
-2.0
 30
0.0
 11
70.000000000000014
 21
-14.141192143912701
 31
0.0
  0
LINE
  5
11C
  8
0
 62
     0
 10
0.0000000000000045
 20
-12.141192143912701
 30
0.0
 11
70.000000000000014
 21
-12.141192143912701
 31
0.0
  0
INSERT
  5
11D
  8
0
 62
     0
  2
_OBLIQUE
 10
0.0000000000000045
 20
-12.141192143912701
 30
0.0
 41
2.0
 42
2.0
 43
2.0
 50
180.0
  0
INSERT
  5
11E
  8
0
 62
     0
  2
_OBLIQUE
 10
70.000000000000014
 20
-12.141192143912701
 30
0.0
 41
2.0
 42
2.0
 43
2.0
  0
INSERT
  5
11F
  8
0
  2
*U7
 10
0.0
 20
0.0
 30
0.0
  0
POINT
  5
120
  8
DEFPOINTS
 62
     0
 10
0.0000000000000053
 20
0.0
 30
0.0
  0
POINT
  5
121
  8
DEFPOINTS
 62
     0
 10
70.000000000000014
 20
0.0
 30
0.0
  0
POINT
  5
122
  8
DEFPOINTS
 62
     0
 10
70.000000000000014
 20
-12.141192143912701
 30
0.0
  0
ENDBLK
  5
9E
  8
0
  0
BLOCK
  8
0
  2
DIMBLOCK2-REF__LEVEL
 70
     0
 10
0.0
 20
0.0
 30
0.0
  3
DIMBLOCK2-REF__LEVEL
  1

  0
LINE
  5
10F
  8
0
 62
     0
 10
68.585786437626837
 20
-36.687736688287472
 30
0.0
 11
61.219468161006453
 21
-44.054054964907813
 31
0.0
  0
LINE
  5
110
  8
0
 62
     0
 10
73.535533905932667
 20
-41.63748415659331
 30
0.0
 11
66.169215629312276
 21
-49.003802433213671
 31
0.0
  0
LINE
  5
111
  8
0
 62
     0
 10
62.633681723379553
 20
-42.639841402534721
 30
0.0
 11
61.219468161006461
 21
-41.225627840161629
 31
0.0
  0
LINE
  5
112
  8
0
 62
     0
 10
67.583429191685383
 20
-47.589588870840579
 30
0.0
 11
68.997642754058475
 21
-49.003802433213679
 31
0.0
  0
LINE
  5
113
  8
0
 62
     0
 10
62.633681723379553
 20
-42.639841402534721
 30
0.0
 11
67.583429191685383
 21
-47.589588870840579
 31
0.0
  0
INSERT
  5
114
  8
0
 62
     0
  2
_OBLIQUE
 10
62.633681723379553
 20
-42.639841402534721
 30
0.0
 41
2.0
 42
2.0
 43
2.0
 50
314.99999999999989
  0
INSERT
  5
115
  8
0
 62
     0
  2
_OBLIQUE
 10
67.583429191685383
 20
-47.589588870840579
 30
0.0
 41
2.0
 42
2.0
 43
2.0
 50
134.99999999999989
  0
INSERT
  5
116
  8
0
  2
*U6
 10
0.0
 20
0.0
 30
0.0
  0
POINT
  5
117
  8
DEFPOINTS
 62
     0
 10
69.999999999999915
 20
-35.27352312591438
 30
0.0
  0
POINT
  5
118
  8
DEFPOINTS
 62
     0
 10
74.949747468305773
 20
-40.223270594220217
 30
0.0
  0
POINT
  5
119
  8
DEFPOINTS
 62
     0
 10
67.583429191685383
 20
-47.589588870840579
 30
0.0
  0
ENDBLK
  5
BF
  8
0
  0
BLOCK
  8
0
  2
DIMBLOCK3-REF__LEVEL
 70
     0
 10
0.0
 20
0.0
 30
0.0
  3
DIMBLOCK3-REF__LEVEL
  1

  0
LINE
  5
106
  8
0
 62
     0
 10
87.740567549054092
 20
-35.0
 30
0.0
 11
97.628071165523906
 21
-35.0
 31
0.0
  0
LINE
  5
107
  8
0
 62
     0
 10
96.213857603150856
 20
-0.0000000000000006
 30
0.0
 11
97.628071165523934
 21
-0.000000000000001
 31
0.0
  0
LINE
  5
108
  8
0
 62
     0
 10
95.628071165523906
 20
-35.0
 30
0.0
 11
95.62807116552392
 21
-0.0000000000000004
 31
0.0
  0
INSERT
  5
109
  8
0
 62
     0
  2
_OBLIQUE
 10
95.628071165523906
 20
-35.0
 30
0.0
 41
2.0
 42
2.0
 43
2.0
 50
270.0
  0
INSERT
  5
10A
  8
0
 62
     0
  2
_OBLIQUE
 10
95.62807116552392
 20
-0.0000000000000004
 30
0.0
 41
2.0
 42
2.0
 43
2.0
 50
90.0
  0
INSERT
  5
10B
  8
0
  2
*U5
 10
0.0
 20
0.0
 30
0.0
  0
POINT
  5
10C
  8
DEFPOINTS
 62
     0
 10
85.740567549054092
 20
-35.0
 30
0.0
  0
POINT
  5
10D
  8
DEFPOINTS
 62
     0
 10
94.213857603150842
 20
0.0
 30
0.0
  0
POINT
  5
10E
  8
DEFPOINTS
 62
     0
 10
95.62807116552392
 20
-0.0000000000000004
 30
0.0
  0
ENDBLK
  5
DB
  8
0
  0
BLOCK
  8
0
  2
*U5
 70
     1
 10
0.0
 20
0.0
 30
0.0
  3
*U5
  1

  0
TEXT
  5
1D0
  8
0
 62
     0
 10
93.569703249241897
 20
-22.64543372327649
 30
0.0
 40
2.9505988023952101
  1
35.00
 50
90.0
  7
ARIAL
  0
ENDBLK
  5
1D2
  8
0
  0
BLOCK
  8
0
  2
*U6
 70
     1
 10
0.0
 20
0.0
 30
0.0
  3
*U6
  1

  0
TEXT
  5
1D4
  8
0
 62
     0
 10
63.72692314371352
 20
-40.824957368233619
 30
0.0
 40
2.9505988023952101
  1
7.00
 50
314.99999999999989
  7
ARIAL
  0
ENDBLK
  5
1D6
  8
0
  0
BLOCK
  8
0
  2
*U7
 70
     1
 10
0.0
 20
0.0
 30
0.0
  3
*U7
  1

  0
TEXT
  5
1D8
  8
0
 62
     0
 10
29.843496499497601
 20
-10.08483691439902
 30
0.0
 40
2.9505988023952101
  1
70.00
  7
ARIAL
  0
ENDBLK
  5
1DA
  8
0
  0
ENDSEC
  0
SECTION
  2
ENTITIES
  0
LINE
  5
88
  8
0
 10
0.0000000000000322
 20
8.0
 30
0.0
 11
0.0000000000000054
 21
0.0000000000000005
 31
0.0
1001
REVIT
1002
{
1070
     1
1000
285724
1002
}
1002
{
1070
     2
1000
-2002000
1002
}
1002
{
1070
     3
1000
206783
1002
}
  0
LINE
  5
89
  8
0
 10
0.0000000000000053
 20
0.0000000000000005
 30
0.0
 11
70.000000000000014
 21
0.0000000000000005
 31
0.0
1001
REVIT
1002
{
1070
     1
1000
285725
1002
}
1002
{
1070
     2
1000
-2002000
1002
}
1002
{
1070
     3
1000
206783
1002
}
  0
LINE
  5
8A
  8
0
 10
70.000000000000014
 20
0.0
 30
0.0
 11
69.999999999999943
 21
-35.273523125914387
 31
0.0
1001
REVIT
1002
{
1070
     1
1000
285726
1002
}
1002
{
1070
     2
1000
-2002000
1002
}
1002
{
1070
     3
1000
206783
1002
}
  0
LINE
  5
8B
  8
0
 10
69.999999999999943
 20
-35.273523125914387
 30
0.0
 11
74.949747468305773
 21
-40.223270594220232
 31
0.0
1001
REVIT
1002
{
1070
     1
1000
285727
1002
}
1002
{
1070
     2
1000
-2002000
1002
}
1002
{
1070
     3
1000
206783
1002
}
  0
LINE
  5
8E
  8
0
 10
0.0000000000000322
 20
8.0
 30
0.0
 11
70.000000000000384
 21
-0.0000000000000434
 31
0.0
1001
REVIT
1002
{
1070
     1
1000
285734
1002
}
1002
{
1070
     2
1000
-2002000
1002
}
1002
{
1070
     3
1000
-2009514
1002
}
  0
ENDSEC
  0
EOF
