  0
SECTION
  2
HEADER
  9
$ACADVER
  1
AC1009
  9
$INSBASE
 10
0.0
 20
0.0
 30
0.0
  9
$EXTMIN
 10
-21.475816895880229
 20
-17.018963514797491
 30
0.0
  9
$EXTMAX
 10
106.7125566359406
 20
104.4680761107052
 30
0.0
  9
$LIMMIN
 10
0.0
 20
0.0
  9
$LIMMAX
 10
12.0
 20
9.0
  9
$ORTHOMODE
 70
     0
  9
$REGENMODE
 70
     1
  9
$FILLMODE
 70
     1
  9
$QTEXTMODE
 70
     0
  9
$MIRRTEXT
 70
     0
  9
$DRAGMODE
 70
     2
  9
$LTSCALE
 40
1.0
  9
$OSMODE
 70
   127
  9
$ATTMODE
 70
     1
  9
$TEXTSIZE
 40
0.2
  9
$TRACEWID
 40
0.05
  9
$TEXTSTYLE
  7
STANDARD
  9
$CLAYER
  8
0
  9
$CELTYPE
  6
BYLAYER
  9
$CECOLOR
 62
   256
  9
$DIMSCALE
 40
1.0
  9
$DIMASZ
 40
0.18
  9
$DIMEXO
 40
0.0625
  9
$DIMDLI
 40
0.38
  9
$DIMRND
 40
0.0
  9
$DIMDLE
 40
0.0
  9
$DIMEXE
 40
0.18
  9
$DIMTP
 40
0.0
  9
$DIMTM
 40
0.0
  9
$DIMTXT
 40
0.18
  9
$DIMCEN
 40
0.09
  9
$DIMTSZ
 40
0.0
  9
$DIMTOL
 70
     0
  9
$DIMLIM
 70
     0
  9
$DIMTIH
 70
     1
  9
$DIMTOH
 70
     1
  9
$DIMSE1
 70
     0
  9
$DIMSE2
 70
     0
  9
$DIMTAD
 70
     0
  9
$DIMZIN
 70
     0
  9
$DIMBLK
  1

  9
$DIMASO
 70
     1
  9
$DIMSHO
 70
     1
  9
$DIMPOST
  1

  9
$DIMAPOST
  1

  9
$DIMALT
 70
     0
  9
$DIMALTD
 70
     2
  9
$DIMALTF
 40
25.399999999999999
  9
$DIMLFAC
 40
1.0
  9
$DIMTOFL
 70
     0
  9
$DIMTVP
 40
0.0
  9
$DIMTIX
 70
     0
  9
$DIMSOXD
 70
     0
  9
$DIMSAH
 70
     0
  9
$DIMBLK1
  1

  9
$DIMBLK2
  1

  9
$DIMSTYLE
  2
STANDARD
  9
$DIMCLRD
 70
     0
  9
$DIMCLRE
 70
     0
  9
$DIMCLRT
 70
     0
  9
$DIMTFAC
 40
1.0
  9
$DIMGAP
 40
0.09
  9
$LUNITS
 70
     2
  9
$LUPREC
 70
     4
  9
$SKETCHINC
 40
0.1
  9
$FILLETRAD
 40
0.0
  9
$AUNITS
 70
     0
  9
$AUPREC
 70
     0
  9
$MENU
  1
.
  9
$ELEVATION
 40
0.0
  9
$PELEVATION
 40
0.0
  9
$THICKNESS
 40
0.0
  9
$LIMCHECK
 70
     0
  9
$BLIPMODE
 70
     0
  9
$CHAMFERA
 40
0.0
  9
$CHAMFERB
 40
0.0
  9
$SKPOLY
 70
     0
  9
$TDCREATE
 40
2457375.5580800809
  9
$TDUPDATE
 40
2457378.9953110758
  9
$TDINDWG
 40
0.0001560995
  9
$TDUSRTIMER
 40
0.0001560995
  9
$USRTIMER
 70
     1
  9
$ANGBASE
 50
0.0
  9
$ANGDIR
 70
     0
  9
$PDMODE
 70
     0
  9
$PDSIZE
 40
0.0
  9
$PLINEWID
 40
0.0
  9
$COORDS
 70
     2
  9
$SPLFRAME
 70
     0
  9
$SPLINETYPE
 70
     6
  9
$SPLINESEGS
 70
     8
  9
$ATTDIA
 70
     0
  9
$ATTREQ
 70
     0
  9
$HANDLING
 70
     1
  9
$HANDSEED
  5
25B
  9
$SURFTAB1
 70
     6
  9
$SURFTAB2
 70
     6
  9
$SURFTYPE
 70
     6
  9
$SURFU
 70
     6
  9
$SURFV
 70
     6
  9
$UCSNAME
  2

  9
$UCSORG
 10
0.0
 20
0.0
 30
0.0
  9
$UCSXDIR
 10
1.0
 20
0.0
 30
0.0
  9
$UCSYDIR
 10
0.0
 20
1.0
 30
0.0
  9
$PUCSNAME
  2

  9
$PUCSORG
 10
0.0
 20
0.0
 30
0.0
  9
$PUCSXDIR
 10
1.0
 20
0.0
 30
0.0
  9
$PUCSYDIR
 10
0.0
 20
1.0
 30
0.0
  9
$USERI1
 70
     0
  9
$USERI2
 70
     0
  9
$USERI3
 70
     0
  9
$USERI4
 70
     0
  9
$USERI5
 70
     0
  9
$USERR1
 40
0.0
  9
$USERR2
 40
0.0
  9
$USERR3
 40
0.0
  9
$USERR4
 40
0.0
  9
$USERR5
 40
0.0
  9
$WORLDVIEW
 70
     1
  9
$SHADEDGE
 70
     3
  9
$SHADEDIF
 70
    70
  9
$TILEMODE
 70
     1
  9
$MAXACTVP
 70
    64
  9
$PLIMCHECK
 70
     0
  9
$PEXTMIN
 10
0.0
 20
0.0
 30
0.0
  9
$PEXTMAX
 10
0.0
 20
0.0
 30
0.0
  9
$PLIMMIN
 10
0.0
 20
0.0
  9
$PLIMMAX
 10
12.0
 20
9.0
  9
$UNITMODE
 70
     0
  9
$VISRETAIN
 70
     1
  9
$PLINEGEN
 70
     0
  9
$PSLTSCALE
 70
     1
  0
ENDSEC
  0
SECTION
  2
TABLES
  0
TABLE
  2
VPORT
 70
     1
  0
VPORT
  2
*ACTIVE
 70
     0
 10
0.0
 20
0.0
 11
1.0
 21
1.0
 12
112.27332735690921
 22
43.834095064894719
 13
0.0
 23
0.0
 14
1.0
 24
1.0
 15
0.0
 25
0.0
 16
0.0
 26
0.0
 36
1.0
 17
0.0
 27
0.0
 37
0.0
 40
99.344522648787134
 41
1.7244755244755241
 42
50.0
 43
0.0
 44
0.0
 50
0.0
 51
0.0
 71
     0
 72
  1000
 73
     1
 74
     3
 75
     0
 76
     0
 77
     0
 78
     0
  0
ENDTAB
  0
TABLE
  2
LTYPE
 70
     1
  0
LTYPE
  2
CONTINUOUS
 70
     0
  3
Solid line
 72
    65
 73
     0
 40
0.0
  0
ENDTAB
  0
TABLE
  2
LAYER
 70
     5
  0
LAYER
  2
0
 70
     0
 62
     7
  6
CONTINUOUS
  0
LAYER
  2
DEFPOINTS
 70
     0
 62
     7
  6
CONTINUOUS
  0
ENDTAB
  0
TABLE
  2
STYLE
 70
     3
  0
STYLE
  2
STANDARD
 70
     0
 40
0.0
 41
1.0
 50
0.0
 71
     0
 42
0.2
  3
txt
  4

  0
STYLE
  2
ARIAL
 70
     0
 40
2.9505988023952101
 41
1.0
 50
0.0
 71
     0
 42
0.2
  3
txt
  4

  0
ENDTAB
  0
TABLE
  2
VIEW
 70
     0
  0
ENDTAB
  0
TABLE
  2
UCS
 70
     0
  0
ENDTAB
  0
TABLE
  2
APPID
 70
     5
  0
APPID
  2
ACAD
 70
     0
  0
APPID
  2
ACADANNOTATIVE
 70
     0
  0
APPID
  2
REVIT
 70
     0
  0
APPID
  2
ACAD_NAV_VCDISPLAY
 70
     0
  0
APPID
  2
ACAD_MLEADERVER
 70
     0
  0
ENDTAB
  0
TABLE
  2
DIMSTYLE
 70
     3
  0
DIMSTYLE
  2
STANDARD
 70
     0
  3

  4

  5

  6

  7

 40
1.0
 41
0.18
 42
0.0625
 43
0.38
 44
0.18
 45
0.0
 46
0.0
 47
0.0
 48
0.0
140
0.18
141
0.09
142
0.0
143
25.399999999999999
144
1.0
145
0.0
146
1.0
147
0.09
 71
     0
 72
     0
 73
     1
 74
     1
 75
     0
 76
     0
 77
     0
 78
     0
170
     0
171
     2
172
     0
173
     0
174
     0
175
     0
176
     0
177
     0
178
     0
  0
DIMSTYLE
  2
LINEAR
 70
     0
  3
<>
  4

  5

  6
OBLIQUE
  7
OBLIQUE
 40
304.80000000000001
 41
0.0065616797900262
 42
0.0065616797900262
 43
0.38
 44
0.0065616797900262
 45
0.01
 46
0.0
 47
0.0
 48
0.0
140
3.0
141
0.09
142
0.0
143
25.399999999999999
144
1.0
145
1.0
146
1.0
147
0.0065616797900262
 71
     0
 72
     0
 73
     0
 74
     0
 75
     0
 76
     0
 77
     1
 78
     0
170
     0
171
     2
172
     1
173
     1
174
     1
175
     0
176
     0
177
     0
178
     0
  0
ENDTAB
  0
ENDSEC
  0
SECTION
  2
BLOCKS
  0
BLOCK
  8
0
  2
$MODEL_SPACE
 70
     0
 10
0.0
 20
0.0
 30
0.0
  3
$MODEL_SPACE
  1

  0
ENDBLK
  5
72
  8
0
  0
BLOCK
 67
     1
  8
0
  2
$PAPER_SPACE
 70
     0
 10
0.0
 20
0.0
 30
0.0
  3
$PAPER_SPACE
  1

  0
ENDBLK
  5
76
 67
     1
  8
0
  0
BLOCK
  8
0
  2
_OBLIQUE
 70
     0
 10
0.0
 20
0.0
 30
0.0
  3
_OBLIQUE
  1

  0
LINE
  5
A0
  8
0
  6
BYBLOCK
 62
     0
 10
-0.5
 20
-0.5
 30
0.0
 11
0.5
 21
0.5
 31
0.0
  0
ENDBLK
  5
A2
  8
0
  0
BLOCK
  8
0
  2
DIMBLOCK1-REF__LEVEL
 70
     0
 10
0.0
 20
0.0
 30
0.0
  3
DIMBLOCK1-REF__LEVEL
  1

  0
LINE
  5
18C
  8
0
 62
     0
 10
16.285650462365819
 20
89.999999999999872
 30
0.0
 11
14.87143689999268
 21
89.999999999999872
 31
0.0
  0
LINE
  5
18D
  8
0
 62
     0
 10
16.28565046236578
 20
79.999999999999886
 30
0.0
 11
14.87143689999268
 21
79.999999999999886
 31
0.0
  0
LINE
  5
18E
  8
0
 62
     0
 10
16.87143689999268
 20
89.999999999999872
 30
0.0
 11
16.87143689999268
 21
91.999999999999858
 31
0.0
  0
LINE
  5
18F
  8
0
 62
     0
 10
16.87143689999268
 20
79.999999999999886
 30
0.0
 11
16.87143689999268
 21
77.999999999999886
 31
0.0
  0
LINE
  5
190
  8
0
 62
     0
 10
16.87143689999268
 20
89.999999999999872
 30
0.0
 11
16.87143689999268
 21
79.999999999999886
 31
0.0
  0
INSERT
  5
191
  8
0
 62
     0
  2
_OBLIQUE
 10
16.87143689999268
 20
89.999999999999872
 30
0.0
 41
2.0
 42
2.0
 43
2.0
 50
270.0
  0
INSERT
  5
192
  8
0
 62
     0
  2
_OBLIQUE
 10
16.87143689999268
 20
79.999999999999886
 30
0.0
 41
2.0
 42
2.0
 43
2.0
 50
90.0
  0
INSERT
  5
193
  8
0
  2
*U13
 10
0.0
 20
0.0
 30
0.0
  0
POINT
  5
194
  8
DEFPOINTS
 62
     0
 10
18.285650462365819
 20
89.999999999999872
 30
0.0
  0
POINT
  5
195
  8
DEFPOINTS
 62
     0
 10
18.28565046236578
 20
79.999999999999886
 30
0.0
  0
POINT
  5
196
  8
DEFPOINTS
 62
     0
 10
16.87143689999268
 20
79.999999999999886
 30
0.0
  0
ENDBLK
  5
9D
  8
0
  0
BLOCK
  8
0
  2
DIMBLOCK2-REF__LEVEL
 70
     0
 10
0.0
 20
0.0
 30
0.0
  3
DIMBLOCK2-REF__LEVEL
  1

  0
LINE
  5
183
  8
0
 62
     0
 10
-15.45315898807047
 20
89.999999999999986
 30
0.0
 11
-16.867372550443829
 21
89.999999999999986
 31
0.0
  0
LINE
  5
184
  8
0
 62
     0
 10
-15.453158988070699
 20
-0.000000000000004
 30
0.0
 11
-16.86737255044385
 21
-0.0000000000000036
 31
0.0
  0
LINE
  5
185
  8
0
 62
     0
 10
-14.867372550443831
 20
89.999999999999986
 30
0.0
 11
-14.86737255044385
 21
-0.0000000000000042
 31
0.0
  0
INSERT
  5
186
  8
0
 62
     0
  2
_OBLIQUE
 10
-14.867372550443831
 20
89.999999999999986
 30
0.0
 41
2.0
 42
2.0
 43
2.0
 50
90.0
  0
INSERT
  5
187
  8
0
 62
     0
  2
_OBLIQUE
 10
-14.86737255044385
 20
-0.0000000000000042
 30
0.0
 41
2.0
 42
2.0
 43
2.0
 50
270.0
  0
INSERT
  5
188
  8
0
  2
*U12
 10
0.0
 20
0.0
 30
0.0
  0
POINT
  5
189
  8
DEFPOINTS
 62
     0
 10
-13.45315898807047
 20
89.999999999999986
 30
0.0
  0
POINT
  5
18A
  8
DEFPOINTS
 62
     0
 10
-13.453158988070699
 20
-0.0000000000000046
 30
0.0
  0
POINT
  5
18B
  8
DEFPOINTS
 62
     0
 10
-14.86737255044385
 20
-0.0000000000000042
 30
0.0
  0
ENDBLK
  5
C0
  8
0
  0
BLOCK
  8
0
  2
DIMBLOCK3-REF__LEVEL
 70
     0
 10
0.0
 20
0.0
 30
0.0
  3
DIMBLOCK3-REF__LEVEL
  1

  0
LINE
  5
17A
  8
0
 62
     0
 10
-0.0000000000000001
 20
-15.60474995242439
 30
0.0
 11
-0.0000000000000002
 21
-17.018963514797491
 31
0.0
  0
LINE
  5
17B
  8
0
 62
     0
 10
89.999999999999986
 20
-15.604749952424511
 30
0.0
 11
89.999999999999986
 21
-17.018963514797491
 31
0.0
  0
LINE
  5
17C
  8
0
 62
     0
 10
-0.0000000000000001
 20
-15.018963514797489
 30
0.0
 11
89.999999999999986
 21
-15.018963514797489
 31
0.0
  0
INSERT
  5
17D
  8
0
 62
     0
  2
_OBLIQUE
 10
-0.0000000000000001
 20
-15.018963514797489
 30
0.0
 41
2.0
 42
2.0
 43
2.0
 50
180.0
  0
INSERT
  5
17E
  8
0
 62
     0
  2
_OBLIQUE
 10
89.999999999999986
 20
-15.018963514797489
 30
0.0
 41
2.0
 42
2.0
 43
2.0
  0
INSERT
  5
17F
  8
0
  2
*U11
 10
0.0
 20
0.0
 30
0.0
  0
POINT
  5
180
  8
DEFPOINTS
 62
     0
 10
0.0
 20
-13.60474995242439
 30
0.0
  0
POINT
  5
181
  8
DEFPOINTS
 62
     0
 10
89.999999999999986
 20
-13.604749952424511
 30
0.0
  0
POINT
  5
182
  8
DEFPOINTS
 62
     0
 10
89.999999999999986
 20
-15.018963514797489
 30
0.0
  0
ENDBLK
  5
DA
  8
0
  0
BLOCK
  8
0
  2
DIMBLOCK4-REF__LEVEL
 70
     0
 10
0.0
 20
0.0
 30
0.0
  3
DIMBLOCK4-REF__LEVEL
  1

  0
LINE
  5
16F
  8
0
 62
     0
 10
80.000000000000057
 20
11.20171816218237
 30
0.0
 11
80.000000000000057
 21
9.7875045998092212
 31
0.0
  0
LINE
  5
170
  8
0
 62
     0
 10
90.000000000000028
 20
11.201718162182351
 30
0.0
 11
90.000000000000028
 21
9.7875045998092212
 31
0.0
  0
LINE
  5
171
  8
0
 62
     0
 10
80.000000000000057
 20
11.787504599809219
 30
0.0
 11
78.000000000000043
 21
11.787504599809219
 31
0.0
  0
LINE
  5
172
  8
0
 62
     0
 10
90.000000000000028
 20
11.787504599809219
 30
0.0
 11
92.000000000000014
 21
11.787504599809219
 31
0.0
  0
LINE
  5
173
  8
0
 62
     0
 10
80.000000000000057
 20
11.787504599809219
 30
0.0
 11
90.000000000000028
 21
11.787504599809219
 31
0.0
  0
INSERT
  5
174
  8
0
 62
     0
  2
_OBLIQUE
 10
80.000000000000057
 20
11.787504599809219
 30
0.0
 41
2.0
 42
2.0
 43
2.0
  0
INSERT
  5
175
  8
0
 62
     0
  2
_OBLIQUE
 10
90.000000000000028
 20
11.787504599809219
 30
0.0
 41
2.0
 42
2.0
 43
2.0
 50
180.0
  0
INSERT
  5
176
  8
0
  2
*U10
 10
0.0
 20
0.0
 30
0.0
  0
POINT
  5
177
  8
DEFPOINTS
 62
     0
 10
80.000000000000057
 20
13.20171816218236
 30
0.0
  0
POINT
  5
178
  8
DEFPOINTS
 62
     0
 10
90.000000000000028
 20
13.201718162182351
 30
0.0
  0
POINT
  5
179
  8
DEFPOINTS
 62
     0
 10
90.000000000000028
 20
11.787504599809219
 30
0.0
  0
ENDBLK
  5
F4
  8
0
  0
BLOCK
  8
0
  2
DIMBLOCK5-REF__LEVEL
 70
     0
 10
0.0
 20
0.0
 30
0.0
  3
DIMBLOCK5-REF__LEVEL
  1

  0
LINE
  5
164
  8
0
 62
     0
 10
-2.9999999999999991
 20
97.27384532764178
 30
0.0
 11
-2.9999999999999991
 21
95.859631765268645
 31
0.0
  0
LINE
  5
165
  8
0
 62
     0
 10
-0.0000000000000001
 20
97.273845327641766
 30
0.0
 11
-0.0000000000000002
 21
95.859631765268645
 31
0.0
  0
LINE
  5
166
  8
0
 62
     0
 10
-2.9999999999999991
 20
97.859631765268659
 30
0.0
 11
-5.0
 21
97.859631765268659
 31
0.0
  0
LINE
  5
167
  8
0
 62
     0
 10
-0.0000000000000001
 20
97.859631765268659
 30
0.0
 11
2.0
 21
97.859631765268659
 31
0.0
  0
LINE
  5
168
  8
0
 62
     0
 10
-2.9999999999999991
 20
97.859631765268659
 30
0.0
 11
-0.0000000000000001
 21
97.859631765268659
 31
0.0
  0
INSERT
  5
169
  8
0
 62
     0
  2
_OBLIQUE
 10
-2.9999999999999991
 20
97.859631765268659
 30
0.0
 41
2.0
 42
2.0
 43
2.0
  0
INSERT
  5
16A
  8
0
 62
     0
  2
_OBLIQUE
 10
-0.0000000000000001
 20
97.859631765268659
 30
0.0
 41
2.0
 42
2.0
 43
2.0
 50
180.0
  0
INSERT
  5
16B
  8
0
  2
*U9
 10
0.0
 20
0.0
 30
0.0
  0
POINT
  5
16C
  8
DEFPOINTS
 62
     0
 10
-2.9999999999999991
 20
99.273845327641794
 30
0.0
  0
POINT
  5
16D
  8
DEFPOINTS
 62
     0
 10
0.0
 20
99.273845327641752
 30
0.0
  0
POINT
  5
16E
  8
DEFPOINTS
 62
     0
 10
-0.0000000000000001
 20
97.859631765268659
 30
0.0
  0
ENDBLK
  5
110
  8
0
  0
BLOCK
  8
0
  2
DIMBLOCK6-REF__LEVEL
 70
     0
 10
0.0
 20
0.0
 30
0.0
  3
DIMBLOCK6-REF__LEVEL
  1

  0
LINE
  5
159
  8
0
 62
     0
 10
105.29834307356749
 20
-3.0
 30
0.0
 11
106.7125566359406
 21
-3.0
 31
0.0
  0
LINE
  5
15A
  8
0
 62
     0
 10
105.29834307356749
 20
-0.0000000000000006
 30
0.0
 11
106.7125566359406
 21
-0.000000000000001
 31
0.0
  0
LINE
  5
15B
  8
0
 62
     0
 10
104.7125566359406
 20
-3.0
 30
0.0
 11
104.7125566359406
 21
-5.0
 31
0.0
  0
LINE
  5
15C
  8
0
 62
     0
 10
104.7125566359406
 20
-0.0000000000000004
 30
0.0
 11
104.7125566359406
 21
1.9999999999999989
 31
0.0
  0
LINE
  5
15D
  8
0
 62
     0
 10
104.7125566359406
 20
-3.0
 30
0.0
 11
104.7125566359406
 21
-0.0000000000000004
 31
0.0
  0
INSERT
  5
15E
  8
0
 62
     0
  2
_OBLIQUE
 10
104.7125566359406
 20
-3.0
 30
0.0
 41
2.0
 42
2.0
 43
2.0
 50
90.0
  0
INSERT
  5
15F
  8
0
 62
     0
  2
_OBLIQUE
 10
104.7125566359406
 20
-0.0000000000000004
 30
0.0
 41
2.0
 42
2.0
 43
2.0
 50
270.0
  0
INSERT
  5
160
  8
0
  2
*U8
 10
0.0
 20
0.0
 30
0.0
  0
POINT
  5
161
  8
DEFPOINTS
 62
     0
 10
103.29834307356749
 20
-3.0
 30
0.0
  0
POINT
  5
162
  8
DEFPOINTS
 62
     0
 10
103.29834307356749
 20
0.0
 30
0.0
  0
POINT
  5
163
  8
DEFPOINTS
 62
     0
 10
104.7125566359406
 20
-0.0000000000000004
 30
0.0
  0
ENDBLK
  5
12C
  8
0
  0
BLOCK
  8
0
  2
*U8
 70
     1
 10
0.0
 20
0.0
 30
0.0
  3
*U8
  1

  0
TEXT
  5
244
  8
0
 62
     0
 10
102.65418871965851
 20
-5.4992086087034497
 30
0.0
 40
2.9505988023952101
  1
3.00
 50
90.0
  7
ARIAL
  0
ENDBLK
  5
246
  8
0
  0
BLOCK
  8
0
  2
*U9
 70
     1
 10
0.0
 20
0.0
 30
0.0
  3
*U9
  1

  0
TEXT
  5
248
  8
0
 62
     0
 10
-5.4992086087034657
 20
99.917999681550711
 30
0.0
 40
2.9505988023952101
  1
3.00
  7
ARIAL
  0
ENDBLK
  5
24A
  8
0
  0
BLOCK
  8
0
  2
*U10
 70
     1
 10
0.0
 20
0.0
 30
0.0
  3
*U10
  1

  0
TEXT
  5
24C
  8
0
 62
     0
 10
79.716697233091821
 20
13.843859829322909
 30
0.0
 40
2.9505988023952101
  1
10.00
  7
ARIAL
  0
ENDBLK
  5
24E
  8
0
  0
BLOCK
  8
0
  2
*U11
 70
     1
 10
0.0
 20
0.0
 30
0.0
  3
*U11
  1

  0
TEXT
  5
250
  8
0
 62
     0
 10
39.855572620107672
 20
-12.9626082852838
 30
0.0
 40
2.9505988023952101
  1
90.00
  7
ARIAL
  0
ENDBLK
  5
252
  8
0
  0
BLOCK
  8
0
  2
*U12
 70
     1
 10
0.0
 20
0.0
 30
0.0
  3
*U12
  1

  0
TEXT
  5
254
  8
0
 62
     0
 10
-16.923727779957531
 20
39.855572620107658
 30
0.0
 40
2.9505988023952101
  1
90.00
 50
90.0
  7
ARIAL
  0
ENDBLK
  5
256
  8
0
  0
BLOCK
  8
0
  2
*U13
 70
     1
 10
0.0
 20
0.0
 30
0.0
  3
*U13
  1

  0
TEXT
  5
258
  8
0
 62
     0
 10
14.81508167047898
 20
79.716697233091679
 30
0.0
 40
2.9505988023952101
  1
10.00
 50
90.0
  7
ARIAL
  0
ENDBLK
  5
25A
  8
0
  0
ENDSEC
  0
SECTION
  2
ENTITIES
  0
LINE
  5
88
  8
0
 10
-0.0000000000000162
 20
89.999999999999943
 30
0.0
 11
-0.0000000000000162
 21
-0.0000000000000169
 31
0.0
1001
REVIT
1002
{
1070
     1
1000
312675
1002
}
1002
{
1070
     2
1000
-2002000
1002
}
1002
{
1070
     3
1000
206783
1002
}
  0
LINE
  5
89
  8
0
 10
-0.0000000000000159
 20
-0.0000000000000088
 30
0.0
 11
90.000000000000014
 21
-0.0000000000003039
 31
0.0
1001
REVIT
1002
{
1070
     1
1000
312676
1002
}
1002
{
1070
     2
1000
-2002000
1002
}
1002
{
1070
     3
1000
206783
1002
}
  0
LINE
  5
8A
  8
0
 10
-0.0000000000000162
 20
89.999999999999943
 30
0.0
 11
-3.000000000000052
 21
89.999999999999943
 31
0.0
1001
REVIT
1002
{
1070
     1
1000
312677
1002
}
1002
{
1070
     2
1000
-2002000
1002
}
1002
{
1070
     3
1000
206783
1002
}
  0
LINE
  5
8B
  8
0
 10
-3.000000000000052
 20
89.999999999999943
 30
0.0
 11
-3.000000000000052
 21
79.999999999999915
 31
0.0
1001
REVIT
1002
{
1070
     1
1000
312678
1002
}
1002
{
1070
     2
1000
-2002000
1002
}
1002
{
1070
     3
1000
206783
1002
}
  0
LINE
  5
8C
  8
0
 10
90.000000000000014
 20
-0.0000000000003039
 30
0.0
 11
90.000000000000014
 21
-2.9999999999999529
 31
0.0
1001
REVIT
1002
{
1070
     1
1000
312682
1002
}
1002
{
1070
     2
1000
-2002000
1002
}
1002
{
1070
     3
1000
206783
1002
}
  0
LINE
  5
8D
  8
0
 10
80.0
 20
-2.999999999999921
 30
0.0
 11
90.000000000000014
 21
-2.9999999999999529
 31
0.0
1001
REVIT
1002
{
1070
     1
1000
312688
1002
}
1002
{
1070
     2
1000
-2002000
1002
}
1002
{
1070
     3
1000
206783
1002
}
  0
ENDSEC
  0
EOF
