  0
SECTION
  2
HEADER
  9
$ACADVER
  1
AC1009
  9
$INSBASE
 10
0.0
 20
0.0
 30
0.0
  9
$EXTMIN
 10
-22.055983379440221
 20
-54.6852035332508
 30
0.0
  9
$EXTMAX
 10
57.031403273669078
 20
50.999999999999808
 30
0.0
  9
$LIMMIN
 10
0.0
 20
0.0
  9
$LIMMAX
 10
12.0
 20
9.0
  9
$ORTHOMODE
 70
     0
  9
$REGENMODE
 70
     1
  9
$FILLMODE
 70
     1
  9
$QTEXTMODE
 70
     0
  9
$MIRRTEXT
 70
     0
  9
$DRAGMODE
 70
     2
  9
$LTSCALE
 40
1.0
  9
$OSMODE
 70
   127
  9
$ATTMODE
 70
     1
  9
$TEXTSIZE
 40
0.2
  9
$TRACEWID
 40
0.05
  9
$TEXTSTYLE
  7
STANDARD
  9
$CLAYER
  8
0
  9
$CELTYPE
  6
BYLAYER
  9
$CECOLOR
 62
   256
  9
$DIMSCALE
 40
1.0
  9
$DIMASZ
 40
0.18
  9
$DIMEXO
 40
0.0625
  9
$DIMDLI
 40
0.38
  9
$DIMRND
 40
0.0
  9
$DIMDLE
 40
0.0
  9
$DIMEXE
 40
0.18
  9
$DIMTP
 40
0.0
  9
$DIMTM
 40
0.0
  9
$DIMTXT
 40
0.18
  9
$DIMCEN
 40
0.09
  9
$DIMTSZ
 40
0.0
  9
$DIMTOL
 70
     0
  9
$DIMLIM
 70
     0
  9
$DIMTIH
 70
     1
  9
$DIMTOH
 70
     1
  9
$DIMSE1
 70
     0
  9
$DIMSE2
 70
     0
  9
$DIMTAD
 70
     0
  9
$DIMZIN
 70
     0
  9
$DIMBLK
  1

  9
$DIMASO
 70
     1
  9
$DIMSHO
 70
     1
  9
$DIMPOST
  1

  9
$DIMAPOST
  1

  9
$DIMALT
 70
     0
  9
$DIMALTD
 70
     2
  9
$DIMALTF
 40
25.399999999999999
  9
$DIMLFAC
 40
1.0
  9
$DIMTOFL
 70
     0
  9
$DIMTVP
 40
0.0
  9
$DIMTIX
 70
     0
  9
$DIMSOXD
 70
     0
  9
$DIMSAH
 70
     0
  9
$DIMBLK1
  1

  9
$DIMBLK2
  1

  9
$DIMSTYLE
  2
STANDARD
  9
$DIMCLRD
 70
     0
  9
$DIMCLRE
 70
     0
  9
$DIMCLRT
 70
     0
  9
$DIMTFAC
 40
1.0
  9
$DIMGAP
 40
0.09
  9
$LUNITS
 70
     2
  9
$LUPREC
 70
     4
  9
$SKETCHINC
 40
0.1
  9
$FILLETRAD
 40
0.0
  9
$AUNITS
 70
     0
  9
$AUPREC
 70
     0
  9
$MENU
  1
.
  9
$ELEVATION
 40
0.0
  9
$PELEVATION
 40
0.0
  9
$THICKNESS
 40
0.0
  9
$LIMCHECK
 70
     0
  9
$BLIPMODE
 70
     0
  9
$CHAMFERA
 40
0.0
  9
$CHAMFERB
 40
0.0
  9
$SKPOLY
 70
     0
  9
$TDCREATE
 40
2457375.5575954858
  9
$TDUPDATE
 40
2457378.9943056712
  9
$TDINDWG
 40
0.0001548148
  9
$TDUSRTIMER
 40
0.0001548148
  9
$USRTIMER
 70
     1
  9
$ANGBASE
 50
0.0
  9
$ANGDIR
 70
     0
  9
$PDMODE
 70
     0
  9
$PDSIZE
 40
0.0
  9
$PLINEWID
 40
0.0
  9
$COORDS
 70
     2
  9
$SPLFRAME
 70
     0
  9
$SPLINETYPE
 70
     6
  9
$SPLINESEGS
 70
     8
  9
$ATTDIA
 70
     0
  9
$ATTREQ
 70
     0
  9
$HANDLING
 70
     1
  9
$HANDSEED
  5
22B
  9
$SURFTAB1
 70
     6
  9
$SURFTAB2
 70
     6
  9
$SURFTYPE
 70
     6
  9
$SURFU
 70
     6
  9
$SURFV
 70
     6
  9
$UCSNAME
  2

  9
$UCSORG
 10
0.0
 20
0.0
 30
0.0
  9
$UCSXDIR
 10
1.0
 20
0.0
 30
0.0
  9
$UCSYDIR
 10
0.0
 20
1.0
 30
0.0
  9
$PUCSNAME
  2

  9
$PUCSORG
 10
0.0
 20
0.0
 30
0.0
  9
$PUCSXDIR
 10
1.0
 20
0.0
 30
0.0
  9
$PUCSYDIR
 10
0.0
 20
1.0
 30
0.0
  9
$USERI1
 70
     0
  9
$USERI2
 70
     0
  9
$USERI3
 70
     0
  9
$USERI4
 70
     0
  9
$USERI5
 70
     0
  9
$USERR1
 40
0.0
  9
$USERR2
 40
0.0
  9
$USERR3
 40
0.0
  9
$USERR4
 40
0.0
  9
$USERR5
 40
0.0
  9
$WORLDVIEW
 70
     1
  9
$SHADEDGE
 70
     3
  9
$SHADEDIF
 70
    70
  9
$TILEMODE
 70
     1
  9
$MAXACTVP
 70
    64
  9
$PLIMCHECK
 70
     0
  9
$PEXTMIN
 10
0.0
 20
0.0
 30
0.0
  9
$PEXTMAX
 10
0.0
 20
0.0
 30
0.0
  9
$PLIMMIN
 10
0.0
 20
0.0
  9
$PLIMMAX
 10
12.0
 20
9.0
  9
$UNITMODE
 70
     0
  9
$VISRETAIN
 70
     1
  9
$PLINEGEN
 70
     0
  9
$PSLTSCALE
 70
     1
  0
ENDSEC
  0
SECTION
  2
TABLES
  0
TABLE
  2
VPORT
 70
     1
  0
VPORT
  2
*ACTIVE
 70
     0
 10
0.0
 20
0.0
 11
1.0
 21
1.0
 12
95.617117648719585
 22
-1.616740428449176
 13
0.0
 23
0.0
 14
1.0
 24
1.0
 15
0.0
 25
0.0
 16
0.0
 26
0.0
 36
1.0
 17
0.0
 27
0.0
 37
0.0
 40
87.333631484172088
 41
1.7244755244755241
 42
50.0
 43
0.0
 44
0.0
 50
0.0
 51
0.0
 71
     0
 72
  1000
 73
     1
 74
     3
 75
     0
 76
     0
 77
     0
 78
     0
  0
ENDTAB
  0
TABLE
  2
LTYPE
 70
     1
  0
LTYPE
  2
CONTINUOUS
 70
     0
  3
Solid line
 72
    65
 73
     0
 40
0.0
  0
ENDTAB
  0
TABLE
  2
LAYER
 70
     5
  0
LAYER
  2
0
 70
     0
 62
     7
  6
CONTINUOUS
  0
LAYER
  2
DEFPOINTS
 70
     0
 62
     7
  6
CONTINUOUS
  0
ENDTAB
  0
TABLE
  2
STYLE
 70
     3
  0
STYLE
  2
STANDARD
 70
     0
 40
0.0
 41
1.0
 50
0.0
 71
     0
 42
0.2
  3
txt
  4

  0
STYLE
  2
ARIAL
 70
     0
 40
2.9505988023952101
 41
1.0
 50
0.0
 71
     0
 42
0.2
  3
txt
  4

  0
ENDTAB
  0
TABLE
  2
VIEW
 70
     0
  0
ENDTAB
  0
TABLE
  2
UCS
 70
     0
  0
ENDTAB
  0
TABLE
  2
APPID
 70
     5
  0
APPID
  2
ACAD
 70
     0
  0
APPID
  2
ACADANNOTATIVE
 70
     0
  0
APPID
  2
REVIT
 70
     0
  0
APPID
  2
ACAD_NAV_VCDISPLAY
 70
     0
  0
APPID
  2
ACAD_MLEADERVER
 70
     0
  0
ENDTAB
  0
TABLE
  2
DIMSTYLE
 70
     4
  0
DIMSTYLE
  2
STANDARD
 70
     0
  3

  4

  5

  6

  7

 40
1.0
 41
0.18
 42
0.0625
 43
0.38
 44
0.18
 45
0.0
 46
0.0
 47
0.0
 48
0.0
140
0.18
141
0.09
142
0.0
143
25.399999999999999
144
1.0
145
0.0
146
1.0
147
0.09
 71
     0
 72
     0
 73
     1
 74
     1
 75
     0
 76
     0
 77
     0
 78
     0
170
     0
171
     2
172
     0
173
     0
174
     0
175
     0
176
     0
177
     0
178
     0
  0
DIMSTYLE
  2
LINEAR
 70
     0
  3
<>
  4

  5

  6
OBLIQUE
  7
OBLIQUE
 40
304.80000000000001
 41
0.0065616797900262
 42
0.0065616797900262
 43
0.38
 44
0.0065616797900262
 45
0.01
 46
0.0
 47
0.0
 48
0.0
140
3.0
141
0.09
142
0.0
143
25.399999999999999
144
1.0
145
1.0
146
1.0
147
0.0065616797900262
 71
     0
 72
     0
 73
     0
 74
     0
 75
     0
 76
     0
 77
     1
 78
     0
170
     0
171
     2
172
     1
173
     1
174
     1
175
     0
176
     0
177
     0
178
     0
  0
DIMSTYLE
  2
ANGULAR
 70
     0
  3
<>
  4

  5

  6
OBLIQUE
  7
OBLIQUE
 40
304.80000000000001
 41
0.0065616797900262
 42
0.0065616797900262
 43
0.38
 44
0.0065616797900262
 45
0.0
 46
0.0
 47
0.0
 48
0.0
140
3.0
141
0.09
142
0.0
143
25.399999999999999
144
1.0
145
1.0
146
1.0
147
0.0065616797900262
 71
     0
 72
     0
 73
     0
 74
     0
 75
     0
 76
     0
 77
     1
 78
     0
170
     0
171
     2
172
     1
173
     1
174
     1
175
     0
176
     0
177
     0
178
     0
  0
ENDTAB
  0
ENDSEC
  0
SECTION
  2
BLOCKS
  0
BLOCK
  8
0
  2
$MODEL_SPACE
 70
     0
 10
0.0
 20
0.0
 30
0.0
  3
$MODEL_SPACE
  1

  0
ENDBLK
  5
72
  8
0
  0
BLOCK
 67
     1
  8
0
  2
$PAPER_SPACE
 70
     0
 10
0.0
 20
0.0
 30
0.0
  3
$PAPER_SPACE
  1

  0
ENDBLK
  5
76
 67
     1
  8
0
  0
BLOCK
  8
0
  2
_OBLIQUE
 70
     0
 10
0.0
 20
0.0
 30
0.0
  3
_OBLIQUE
  1

  0
LINE
  5
9E
  8
0
  6
BYBLOCK
 62
     0
 10
-0.5
 20
-0.5
 30
0.0
 11
0.5
 21
0.5
 31
0.0
  0
ENDBLK
  5
A0
  8
0
  0
BLOCK
  8
0
  2
DIMBLOCK1-REF__LEVEL
 70
     0
 10
0.0
 20
0.0
 30
0.0
  3
DIMBLOCK1-REF__LEVEL
  1

  0
LINE
  5
162
  8
0
 62
     0
 10
-16.033325471630508
 20
49.999999999999822
 30
0.0
 11
-17.447539034003761
 21
49.999999999999822
 31
0.0
  0
LINE
  5
163
  8
0
 62
     0
 10
-16.03332547163058
 20
-0.000000000000004
 30
0.0
 11
-17.447539034003771
 21
-0.0000000000000036
 31
0.0
  0
LINE
  5
164
  8
0
 62
     0
 10
-15.447539034003761
 20
49.999999999999822
 30
0.0
 11
-15.447539034003769
 21
-0.0000000000000042
 31
0.0
  0
INSERT
  5
165
  8
0
 62
     0
  2
_OBLIQUE
 10
-15.447539034003761
 20
49.999999999999822
 30
0.0
 41
2.0
 42
2.0
 43
2.0
 50
90.0
  0
INSERT
  5
166
  8
0
 62
     0
  2
_OBLIQUE
 10
-15.447539034003769
 20
-0.0000000000000042
 30
0.0
 41
2.0
 42
2.0
 43
2.0
 50
270.0
  0
INSERT
  5
167
  8
0
  2
*U11
 10
0.0
 20
0.0
 30
0.0
  0
POINT
  5
168
  8
DEFPOINTS
 62
     0
 10
-14.03332547163051
 20
49.999999999999822
 30
0.0
  0
POINT
  5
169
  8
DEFPOINTS
 62
     0
 10
-14.03332547163058
 20
-0.0000000000000046
 30
0.0
  0
POINT
  5
16A
  8
DEFPOINTS
 62
     0
 10
-15.447539034003769
 20
-0.0000000000000042
 30
0.0
  0
ENDBLK
  5
9B
  8
0
  0
BLOCK
  8
0
  2
DIMBLOCK2-REF__LEVEL
 70
     0
 10
0.0
 20
0.0
 30
0.0
  3
DIMBLOCK2-REF__LEVEL
  1

  0
LINE
  5
159
  8
0
 62
     0
 10
-0.517638090205122
 20
-1.931851652578134
 30
0.0
 11
-3.4522925306748231
 21
-12.88413112706853
 31
0.0
  0
LINE
  5
15A
  8
0
 62
     0
 10
28.46013669846689
 20
-9.6964230056538412
 30
0.0
 11
25.52548225799719
 21
-20.648702480144241
 31
0.0
  0
LINE
  5
15B
  8
0
 62
     0
 10
-2.934654440469775
 20
-10.952279474490391
 30
0.0
 11
26.04312034820224
 21
-18.716850827566109
 31
0.0
  0
INSERT
  5
15C
  8
0
 62
     0
  2
_OBLIQUE
 10
-2.934654440469775
 20
-10.952279474490391
 30
0.0
 41
2.0
 42
2.0
 43
2.0
 50
164.9999999999998
  0
INSERT
  5
15D
  8
0
 62
     0
  2
_OBLIQUE
 10
26.04312034820224
 20
-18.716850827566109
 30
0.0
 41
2.0
 42
2.0
 43
2.0
 50
344.99999999999977
  0
INSERT
  5
15E
  8
0
  2
*U10
 10
0.0
 20
0.0
 30
0.0
  0
POINT
  5
15F
  8
DEFPOINTS
 62
     0
 10
-0.000000000000074
 20
0.0
 30
0.0
  0
POINT
  5
160
  8
DEFPOINTS
 62
     0
 10
28.97777478867194
 20
-7.7645713530757066
 30
0.0
  0
POINT
  5
161
  8
DEFPOINTS
 62
     0
 10
26.04312034820224
 20
-18.716850827566109
 30
0.0
  0
ENDBLK
  5
BC
  8
0
  0
BLOCK
  8
0
  2
DIMBLOCK3-REF__LEVEL
 70
     0
 10
0.0
 20
0.0
 30
0.0
  3
DIMBLOCK3-REF__LEVEL
  1

  0
LINE
  5
150
  8
0
 62
     0
 10
30.977774788671951
 20
-7.7645713530757101
 30
0.0
 11
42.004086919971101
 21
-7.7645713530757128
 31
0.0
  0
LINE
  5
151
  8
0
 62
     0
 10
30.977774788671891
 20
-42.764571353075702
 30
0.0
 11
42.004086919971087
 21
-42.764571353075702
 31
0.0
  0
LINE
  5
152
  8
0
 62
     0
 10
40.004086919971101
 20
-7.7645713530757119
 30
0.0
 11
40.004086919971087
 21
-42.764571353075702
 31
0.0
  0
INSERT
  5
153
  8
0
 62
     0
  2
_OBLIQUE
 10
40.004086919971101
 20
-7.7645713530757119
 30
0.0
 41
2.0
 42
2.0
 43
2.0
 50
90.0
  0
INSERT
  5
154
  8
0
 62
     0
  2
_OBLIQUE
 10
40.004086919971087
 20
-42.764571353075702
 30
0.0
 41
2.0
 42
2.0
 43
2.0
 50
270.0
  0
INSERT
  5
155
  8
0
  2
*U9
 10
0.0
 20
0.0
 30
0.0
  0
POINT
  5
156
  8
DEFPOINTS
 62
     0
 10
28.97777478867194
 20
-7.7645713530757092
 30
0.0
  0
POINT
  5
157
  8
DEFPOINTS
 62
     0
 10
28.977774788671891
 20
-42.764571353075702
 30
0.0
  0
POINT
  5
158
  8
DEFPOINTS
 62
     0
 10
40.004086919971087
 20
-42.764571353075702
 30
0.0
  0
ENDBLK
  5
D6
  8
0
  0
BLOCK
  8
0
  2
DIMBLOCK4-REF__LEVEL
 70
     0
 10
0.0
 20
0.0
 30
0.0
  3
DIMBLOCK4-REF__LEVEL
  1

  0
LINE
  5
145
  8
0
 62
     0
 10
27.563561226298791
 20
-44.17878491544878
 30
0.0
 11
21.04439919078213
 21
-50.697946950965402
 31
0.0
  0
LINE
  5
146
  8
0
 62
     0
 10
31.099095132231511
 20
-47.714318821381518
 30
0.0
 11
24.579933096714861
 21
-54.233480856898147
 31
0.0
  0
LINE
  5
147
  8
0
 62
     0
 10
22.458612753155229
 20
-49.28373338859231
 30
0.0
 11
21.044399190782141
 21
-47.869519826219218
 31
0.0
  0
LINE
  5
148
  8
0
 62
     0
 10
25.99414665908796
 20
-52.819267294525062
 30
0.0
 11
27.408360221461049
 21
-54.233480856898161
 31
0.0
  0
LINE
  5
149
  8
0
 62
     0
 10
22.458612753155229
 20
-49.28373338859231
 30
0.0
 11
25.99414665908796
 21
-52.819267294525062
 31
0.0
  0
INSERT
  5
14A
  8
0
 62
     0
  2
_OBLIQUE
 10
22.458612753155229
 20
-49.28373338859231
 30
0.0
 41
2.0
 42
2.0
 43
2.0
 50
314.99999999999989
  0
INSERT
  5
14B
  8
0
 62
     0
  2
_OBLIQUE
 10
25.99414665908796
 20
-52.819267294525062
 30
0.0
 41
2.0
 42
2.0
 43
2.0
 50
134.99999999999989
  0
INSERT
  5
14C
  8
0
  2
*U8
 10
0.0
 20
0.0
 30
0.0
  0
POINT
  5
14D
  8
DEFPOINTS
 62
     0
 10
28.977774788671891
 20
-42.764571353075688
 30
0.0
  0
POINT
  5
14E
  8
DEFPOINTS
 62
     0
 10
32.513308694604611
 20
-46.30010525900844
 30
0.0
  0
POINT
  5
14F
  8
DEFPOINTS
 62
     0
 10
25.99414665908796
 20
-52.819267294525062
 30
0.0
  0
ENDBLK
  5
F0
  8
0
  0
BLOCK
  8
0
  2
DIMBLOCK5-REF__LEVEL
 70
     0
 10
0.0
 20
0.0
 30
0.0
  3
DIMBLOCK5-REF__LEVEL
  1

  0
LINE
  5
13B
  8
0
 62
     0
 10
53.156253678965697
 20
-14.24317524594294
 30
0.0
 11
49.292550373809441
 21
-13.20789906553285
 31
0.0
  0
LINE
  5
13C
  8
0
 62
     0
 10
55.031403273669071
 20
-0.0000000000000195
 30
0.0
 11
51.031403273669078
 21
-0.0000000000000195
 31
0.0
  0
ARC
  5
13D
  8
0
 62
     0
 10
0.0
 20
0.0
 30
0.0
 40
53.031403273669078
 50
344.99999999999989
 51
0.0
  0
INSERT
  5
13E
  8
0
 62
     0
  2
_OBLIQUE
 10
51.224402026387573
 20
-13.72553715573787
 30
0.0
 41
2.0
 42
2.0
 43
2.0
 50
254.9999999999998
  0
INSERT
  5
13F
  8
0
 62
     0
  2
_OBLIQUE
 10
53.031403273669078
 20
-0.0000000000000249
 30
0.0
 41
2.0
 42
2.0
 43
2.0
 50
90.0
  0
INSERT
  5
140
  8
0
  2
*U7
 10
0.0
 20
0.0
 30
0.0
  0
POINT
  5
141
  8
DEFPOINTS
 62
     0
 10
0.0
 20
0.0
 30
0.0
  0
POINT
  5
142
  8
DEFPOINTS
 62
     0
 10
55.088105331543851
 20
-14.76081333614799
 30
0.0
  0
POINT
  5
143
  8
DEFPOINTS
 62
     0
 10
57.031403273669078
 20
-0.0000000000000213
 30
0.0
  0
POINT
  5
144
  8
DEFPOINTS
 62
     0
 10
52.225737097026283
 20
-9.2088065375928263
 30
0.0
  0
ENDBLK
  5
10E
  8
0
  0
BLOCK
  8
0
  2
*U7
 70
     1
 10
0.0
 20
0.0
 30
0.0
  3
*U7
  1

  0
TEXT
  5
218
  8
0
 62
     0
 10
49.746752442379247
 20
-12.670912534820429
 30
0.0
 40
2.9505988023952101
  1
15.00°
 50
82.499999999999915
  7
ARIAL
  0
ENDBLK
  5
21A
  8
0
  0
BLOCK
  8
0
  2
*U8
 70
     1
 10
0.0
 20
0.0
 30
0.0
  3
*U8
  1

  0
TEXT
  5
21C
  8
0
 62
     0
 10
22.853286499076471
 20
-46.770281679878451
 30
0.0
 40
2.9505988023952101
  1
5.00
 50
314.99999999999989
  7
ARIAL
  0
ENDBLK
  5
21E
  8
0
  0
BLOCK
  8
0
  2
*U9
 70
     1
 10
0.0
 20
0.0
 30
0.0
  3
*U9
  1

  0
TEXT
  5
220
  8
0
 62
     0
 10
37.945719003689057
 20
-30.41000507635221
 30
0.0
 40
2.9505988023952101
  1
35.00
 50
90.0
  7
ARIAL
  0
ENDBLK
  5
222
  8
0
  0
BLOCK
  8
0
  2
*U10
 70
     1
 10
0.0
 20
0.0
 30
0.0
  3
*U10
  1

  0
TEXT
  5
224
  8
0
 62
     0
 10
7.1168704516565304
 20
-11.514598177789869
 30
0.0
 40
2.9505988023952101
  1
30.00
 50
344.99999999999977
  7
ARIAL
  0
ENDBLK
  5
226
  8
0
  0
BLOCK
  8
0
  2
*U11
 70
     1
 10
0.0
 20
0.0
 30
0.0
  3
*U11
  1

  0
TEXT
  5
228
  8
0
 62
     0
 10
-17.503894263517459
 20
19.855572620107569
 30
0.0
 40
2.9505988023952101
  1
50.00
 50
90.0
  7
ARIAL
  0
ENDBLK
  5
22A
  8
0
  0
ENDSEC
  0
SECTION
  2
ENTITIES
  0
LINE
  5
88
  8
0
 10
0.0000000000000044
 20
49.999999999999773
 30
0.0
 11
-0.0000000000000766
 21
0.0
 31
0.0
1001
REVIT
1002
{
1070
     1
1000
236204
1002
}
1002
{
1070
     2
1000
-2002000
1002
}
1002
{
1070
     3
1000
206783
1002
}
  0
LINE
  5
89
  8
0
 10
-0.0000000000000745
 20
-0.0000000000000007
 30
0.0
 11
28.97777478867194
 21
-7.7645713530757048
 31
0.0
1001
REVIT
1002
{
1070
     1
1000
236209
1002
}
1002
{
1070
     2
1000
-2002000
1002
}
1002
{
1070
     3
1000
206783
1002
}
  0
LINE
  5
8A
  8
0
 10
28.97777478867194
 20
-7.7645713530757083
 30
0.0
 11
28.977774788671891
 21
-42.764571353075702
 31
0.0
1001
REVIT
1002
{
1070
     1
1000
236210
1002
}
1002
{
1070
     2
1000
-2002000
1002
}
1002
{
1070
     3
1000
206783
1002
}
  0
LINE
  5
8B
  8
0
 10
28.977774788671891
 20
-42.764571353075702
 30
0.0
 11
32.513308694604618
 21
-46.300105259008447
 31
0.0
1001
REVIT
1002
{
1070
     1
1000
236211
1002
}
1002
{
1070
     2
1000
-2002000
1002
}
1002
{
1070
     3
1000
206783
1002
}
  0
ENDSEC
  0
EOF
