  0
SECTION
  2
HEADER
  9
$ACADVER
  1
AC1009
  9
$INSBASE
 10
0.0
 20
0.0
 30
0.0
  9
$EXTMIN
 10
-57.676551621035053
 20
-65.832660819883927
 30
0.0
  9
$EXTMAX
 10
70.866442088581124
 20
84.000000000000014
 30
0.0
  9
$LIMMIN
 10
0.0
 20
0.0
  9
$LIMMAX
 10
12.0
 20
9.0
  9
$ORTHOMODE
 70
     0
  9
$REGENMODE
 70
     1
  9
$FILLMODE
 70
     1
  9
$QTEXTMODE
 70
     0
  9
$MIRRTEXT
 70
     0
  9
$DRAGMODE
 70
     2
  9
$LTSCALE
 40
1.0
  9
$OSMODE
 70
   127
  9
$ATTMODE
 70
     1
  9
$TEXTSIZE
 40
0.2
  9
$TRACEWID
 40
0.05
  9
$TEXTSTYLE
  7
STANDARD
  9
$CLAYER
  8
0
  9
$CELTYPE
  6
BYLAYER
  9
$CECOLOR
 62
   256
  9
$DIMSCALE
 40
1.0
  9
$DIMASZ
 40
0.18
  9
$DIMEXO
 40
0.0625
  9
$DIMDLI
 40
0.38
  9
$DIMRND
 40
0.0
  9
$DIMDLE
 40
0.0
  9
$DIMEXE
 40
0.18
  9
$DIMTP
 40
0.0
  9
$DIMTM
 40
0.0
  9
$DIMTXT
 40
0.18
  9
$DIMCEN
 40
0.09
  9
$DIMTSZ
 40
0.0
  9
$DIMTOL
 70
     0
  9
$DIMLIM
 70
     0
  9
$DIMTIH
 70
     1
  9
$DIMTOH
 70
     1
  9
$DIMSE1
 70
     0
  9
$DIMSE2
 70
     0
  9
$DIMTAD
 70
     0
  9
$DIMZIN
 70
     0
  9
$DIMBLK
  1

  9
$DIMASO
 70
     1
  9
$DIMSHO
 70
     1
  9
$DIMPOST
  1

  9
$DIMAPOST
  1

  9
$DIMALT
 70
     0
  9
$DIMALTD
 70
     2
  9
$DIMALTF
 40
25.399999999999999
  9
$DIMLFAC
 40
1.0
  9
$DIMTOFL
 70
     0
  9
$DIMTVP
 40
0.0
  9
$DIMTIX
 70
     0
  9
$DIMSOXD
 70
     0
  9
$DIMSAH
 70
     0
  9
$DIMBLK1
  1

  9
$DIMBLK2
  1

  9
$DIMSTYLE
  2
STANDARD
  9
$DIMCLRD
 70
     0
  9
$DIMCLRE
 70
     0
  9
$DIMCLRT
 70
     0
  9
$DIMTFAC
 40
1.0
  9
$DIMGAP
 40
0.09
  9
$LUNITS
 70
     2
  9
$LUPREC
 70
     4
  9
$SKETCHINC
 40
0.1
  9
$FILLETRAD
 40
0.0
  9
$AUNITS
 70
     0
  9
$AUPREC
 70
     0
  9
$MENU
  1
.
  9
$ELEVATION
 40
0.0
  9
$PELEVATION
 40
0.0
  9
$THICKNESS
 40
0.0
  9
$LIMCHECK
 70
     0
  9
$BLIPMODE
 70
     0
  9
$CHAMFERA
 40
0.0
  9
$CHAMFERB
 40
0.0
  9
$SKPOLY
 70
     0
  9
$TDCREATE
 40
2457375.5573319099
  9
$TDUPDATE
 40
2457378.993856065
  9
$TDINDWG
 40
0.0001348264
  9
$TDUSRTIMER
 40
0.0001348264
  9
$USRTIMER
 70
     1
  9
$ANGBASE
 50
0.0
  9
$ANGDIR
 70
     0
  9
$PDMODE
 70
     0
  9
$PDSIZE
 40
0.0
  9
$PLINEWID
 40
0.0
  9
$COORDS
 70
     2
  9
$SPLFRAME
 70
     0
  9
$SPLINETYPE
 70
     6
  9
$SPLINESEGS
 70
     8
  9
$ATTDIA
 70
     0
  9
$ATTREQ
 70
     0
  9
$HANDLING
 70
     1
  9
$HANDSEED
  5
2AC
  9
$SURFTAB1
 70
     6
  9
$SURFTAB2
 70
     6
  9
$SURFTYPE
 70
     6
  9
$SURFU
 70
     6
  9
$SURFV
 70
     6
  9
$UCSNAME
  2

  9
$UCSORG
 10
0.0
 20
0.0
 30
0.0
  9
$UCSXDIR
 10
1.0
 20
0.0
 30
0.0
  9
$UCSYDIR
 10
0.0
 20
1.0
 30
0.0
  9
$PUCSNAME
  2

  9
$PUCSORG
 10
0.0
 20
0.0
 30
0.0
  9
$PUCSXDIR
 10
1.0
 20
0.0
 30
0.0
  9
$PUCSYDIR
 10
0.0
 20
1.0
 30
0.0
  9
$USERI1
 70
     0
  9
$USERI2
 70
     0
  9
$USERI3
 70
     0
  9
$USERI4
 70
     0
  9
$USERI5
 70
     0
  9
$USERR1
 40
0.0
  9
$USERR2
 40
0.0
  9
$USERR3
 40
0.0
  9
$USERR4
 40
0.0
  9
$USERR5
 40
0.0
  9
$WORLDVIEW
 70
     1
  9
$SHADEDGE
 70
     3
  9
$SHADEDIF
 70
    70
  9
$TILEMODE
 70
     1
  9
$MAXACTVP
 70
    64
  9
$PLIMCHECK
 70
     0
  9
$PEXTMIN
 10
0.0
 20
0.0
 30
0.0
  9
$PEXTMAX
 10
0.0
 20
0.0
 30
0.0
  9
$PLIMMIN
 10
0.0
 20
0.0
  9
$PLIMMAX
 10
12.0
 20
9.0
  9
$UNITMODE
 70
     0
  9
$VISRETAIN
 70
     1
  9
$PLINEGEN
 70
     0
  9
$PSLTSCALE
 70
     1
  0
ENDSEC
  0
SECTION
  2
TABLES
  0
TABLE
  2
VPORT
 70
     1
  0
VPORT
  2
*ACTIVE
 70
     0
 10
0.0
 20
0.0
 11
1.0
 21
1.0
 12
108.7558993476875
 22
9.0836695900580366
 13
0.0
 23
0.0
 14
1.0
 24
1.0
 15
0.0
 25
0.0
 16
0.0
 26
0.0
 36
1.0
 17
0.0
 27
0.0
 37
0.0
 40
124.34664593230499
 41
1.7244755244755241
 42
50.0
 43
0.0
 44
0.0
 50
0.0
 51
0.0
 71
     0
 72
  1000
 73
     1
 74
     3
 75
     0
 76
     0
 77
     0
 78
     0
  0
ENDTAB
  0
TABLE
  2
LTYPE
 70
     1
  0
LTYPE
  2
CONTINUOUS
 70
     0
  3
Solid line
 72
    65
 73
     0
 40
0.0
  0
ENDTAB
  0
TABLE
  2
LAYER
 70
     5
  0
LAYER
  2
0
 70
     0
 62
     7
  6
CONTINUOUS
  0
LAYER
  2
DEFPOINTS
 70
     0
 62
     7
  6
CONTINUOUS
  0
ENDTAB
  0
TABLE
  2
STYLE
 70
     3
  0
STYLE
  2
STANDARD
 70
     0
 40
0.0
 41
1.0
 50
0.0
 71
     0
 42
0.2
  3
txt
  4

  0
STYLE
  2
ARIAL
 70
     0
 40
2.9505988023952101
 41
1.0
 50
0.0
 71
     0
 42
0.2
  3
txt
  4

  0
ENDTAB
  0
TABLE
  2
VIEW
 70
     0
  0
ENDTAB
  0
TABLE
  2
UCS
 70
     0
  0
ENDTAB
  0
TABLE
  2
APPID
 70
     5
  0
APPID
  2
ACAD
 70
     0
  0
APPID
  2
ACADANNOTATIVE
 70
     0
  0
APPID
  2
REVIT
 70
     0
  0
APPID
  2
ACAD_NAV_VCDISPLAY
 70
     0
  0
APPID
  2
ACAD_MLEADERVER
 70
     0
  0
ENDTAB
  0
TABLE
  2
DIMSTYLE
 70
     5
  0
DIMSTYLE
  2
STANDARD
 70
     0
  3

  4

  5

  6

  7

 40
1.0
 41
0.18
 42
0.0625
 43
0.38
 44
0.18
 45
0.0
 46
0.0
 47
0.0
 48
0.0
140
0.18
141
0.09
142
0.0
143
25.399999999999999
144
1.0
145
0.0
146
1.0
147
0.09
 71
     0
 72
     0
 73
     1
 74
     1
 75
     0
 76
     0
 77
     0
 78
     0
170
     0
171
     2
172
     0
173
     0
174
     0
175
     0
176
     0
177
     0
178
     0
  0
DIMSTYLE
  2
LINEAR
 70
     0
  3
<>
  4

  5

  6
OBLIQUE
  7
OBLIQUE
 40
304.80000000000001
 41
0.0065616797900262
 42
0.0065616797900262
 43
0.38
 44
0.0065616797900262
 45
0.01
 46
0.0
 47
0.0
 48
0.0
140
3.0
141
0.09
142
0.0
143
25.399999999999999
144
1.0
145
1.0
146
1.0
147
0.0065616797900262
 71
     0
 72
     0
 73
     0
 74
     0
 75
     0
 76
     0
 77
     1
 78
     0
170
     0
171
     2
172
     1
173
     1
174
     1
175
     0
176
     0
177
     0
178
     0
  0
DIMSTYLE
  2
LINEAR_1
 70
     0
  3
<>
  4

  5

  6
OBLIQUE
  7
OBLIQUE
 40
304.80000000000001
 41
0.0065616797900262
 42
0.0065616797900262
 43
0.38
 44
0.0065616797900262
 45
0.01
 46
0.0
 47
0.0
 48
0.0
140
3.0
141
0.09
142
0.0
143
25.399999999999999
144
1.0
145
1.0
146
1.0
147
0.0065616797900262
 71
     0
 72
     0
 73
     0
 74
     0
 75
     0
 76
     0
 77
     1
 78
     0
170
     0
171
     2
172
     1
173
     1
174
     1
175
     0
176
     0
177
     0
178
     0
  0
DIMSTYLE
  2
ANGULAR
 70
     0
  3
<>
  4

  5

  6
OBLIQUE
  7
OBLIQUE
 40
304.80000000000001
 41
0.0065616797900262
 42
0.0065616797900262
 43
0.38
 44
0.0065616797900262
 45
0.0
 46
0.0
 47
0.0
 48
0.0
140
3.0
141
0.09
142
0.0
143
25.399999999999999
144
1.0
145
1.0
146
1.0
147
0.0065616797900262
 71
     0
 72
     0
 73
     0
 74
     0
 75
     0
 76
     0
 77
     1
 78
     0
170
     0
171
     2
172
     1
173
     1
174
     1
175
     0
176
     0
177
     0
178
     0
  0
ENDTAB
  0
ENDSEC
  0
SECTION
  2
BLOCKS
  0
BLOCK
  8
0
  2
$MODEL_SPACE
 70
     0
 10
0.0
 20
0.0
 30
0.0
  3
$MODEL_SPACE
  1

  0
ENDBLK
  5
72
  8
0
  0
BLOCK
 67
     1
  8
0
  2
$PAPER_SPACE
 70
     0
 10
0.0
 20
0.0
 30
0.0
  3
$PAPER_SPACE
  1

  0
ENDBLK
  5
76
 67
     1
  8
0
  0
BLOCK
  8
0
  2
_OBLIQUE
 70
     0
 10
0.0
 20
0.0
 30
0.0
  3
_OBLIQUE
  1

  0
LINE
  5
A1
  8
0
  6
BYBLOCK
 62
     0
 10
-0.5
 20
-0.5
 30
0.0
 11
0.5
 21
0.5
 31
0.0
  0
ENDBLK
  5
A3
  8
0
  0
BLOCK
  8
0
  2
DIMBLOCK1-REF__LEVEL
 70
     0
 10
0.0
 20
0.0
 30
0.0
  3
DIMBLOCK1-REF__LEVEL
  1

  0
LINE
  5
1D7
  8
0
 62
     0
 10
-39.171370734745537
 20
-0.0000000000000006
 30
0.0
 11
-37.757157172372459
 21
-0.000000000000001
 31
0.0
  0
LINE
  5
1D8
  8
0
 62
     0
 10
-9.8538760524009206
 20
83.0
 30
0.0
 11
-41.757157172372438
 21
83.000000000000014
 31
0.0
  0
LINE
  5
1D9
  8
0
 62
     0
 10
-39.757157172372459
 20
-0.0000000000000004
 30
0.0
 11
-39.757157172372438
 21
83.000000000000014
 31
0.0
  0
INSERT
  5
1DA
  8
0
 62
     0
  2
_OBLIQUE
 10
-39.757157172372459
 20
-0.0000000000000004
 30
0.0
 41
2.0
 42
2.0
 43
2.0
 50
270.0
  0
INSERT
  5
1DB
  8
0
 62
     0
  2
_OBLIQUE
 10
-39.757157172372438
 20
83.000000000000014
 30
0.0
 41
2.0
 42
2.0
 43
2.0
 50
90.0
  0
INSERT
  5
1DC
  8
0
  2
*U17
 10
0.0
 20
0.0
 30
0.0
  0
POINT
  5
1DD
  8
DEFPOINTS
 62
     0
 10
-41.171370734745537
 20
0.0
 30
0.0
  0
POINT
  5
1DE
  8
DEFPOINTS
 62
     0
 10
-7.8538760524009188
 20
83.0
 30
0.0
  0
POINT
  5
1DF
  8
DEFPOINTS
 62
     0
 10
-39.757157172372438
 20
83.000000000000014
 30
0.0
  0
ENDBLK
  5
9E
  8
0
  0
BLOCK
  8
0
  2
DIMBLOCK2-REF__LEVEL
 70
     0
 10
0.0
 20
0.0
 30
0.0
  3
DIMBLOCK2-REF__LEVEL
  1

  0
LINE
  5
1CE
  8
0
 62
     0
 10
-0.0000000000000001
 20
21.614548591684368
 30
0.0
 11
-0.0000000000000002
 21
20.200335029311269
 31
0.0
  0
LINE
  5
1CF
  8
0
 62
     0
 10
29.999999999999801
 20
1.9999999999998941
 30
0.0
 11
29.999999999999801
 21
24.200335029311269
 31
0.0
  0
LINE
  5
1D0
  8
0
 62
     0
 10
-0.0000000000000001
 20
22.200335029311269
 30
0.0
 11
29.999999999999801
 21
22.200335029311269
 31
0.0
  0
INSERT
  5
1D1
  8
0
  2
*U16
 10
0.0
 20
0.0
 30
0.0
  0
INSERT
  5
1D2
  8
0
 62
     0
  2
_OBLIQUE
 10
-0.0000000000000001
 20
22.200335029311269
 30
0.0
 41
2.0
 42
2.0
 43
2.0
 50
180.0
  0
INSERT
  5
1D3
  8
0
 62
     0
  2
_OBLIQUE
 10
29.999999999999801
 20
22.200335029311269
 30
0.0
 41
2.0
 42
2.0
 43
2.0
  0
POINT
  5
1D4
  8
DEFPOINTS
 62
     0
 10
0.0
 20
23.614548591684368
 30
0.0
  0
POINT
  5
1D5
  8
DEFPOINTS
 62
     0
 10
29.999999999999801
 20
-0.0000000000001057
 30
0.0
  0
POINT
  5
1D6
  8
DEFPOINTS
 62
     0
 10
29.999999999999801
 20
22.200335029311269
 30
0.0
  0
ENDBLK
  5
BF
  8
0
  0
BLOCK
  8
0
  2
DIMBLOCK3-REF__LEVEL
 70
     0
 10
0.0
 20
0.0
 30
0.0
  3
DIMBLOCK3-REF__LEVEL
  1

  0
LINE
  5
1C3
  8
0
 62
     0
 10
31.99999999999979
 20
-10.000000000000201
 30
0.0
 11
58.975352183192349
 21
-10.00000000000021
 31
0.0
  0
LINE
  5
1C4
  8
0
 62
     0
 10
57.56113862081925
 20
-0.0000000000000006
 30
0.0
 11
58.975352183192349
 21
-0.000000000000001
 31
0.0
  0
LINE
  5
1C5
  8
0
 62
     0
 10
56.975352183192342
 20
-10.00000000000021
 30
0.0
 11
56.975352183192342
 21
-12.00000000000021
 31
0.0
  0
LINE
  5
1C6
  8
0
 62
     0
 10
56.975352183192342
 20
-0.0000000000000004
 30
0.0
 11
56.975352183192342
 21
2.0
 31
0.0
  0
LINE
  5
1C7
  8
0
 62
     0
 10
56.975352183192342
 20
-10.00000000000021
 30
0.0
 11
56.975352183192342
 21
-0.0000000000000004
 31
0.0
  0
INSERT
  5
1C8
  8
0
 62
     0
  2
_OBLIQUE
 10
56.975352183192342
 20
-10.00000000000021
 30
0.0
 41
2.0
 42
2.0
 43
2.0
 50
90.0
  0
INSERT
  5
1C9
  8
0
 62
     0
  2
_OBLIQUE
 10
56.975352183192342
 20
-0.0000000000000004
 30
0.0
 41
2.0
 42
2.0
 43
2.0
 50
270.0
  0
INSERT
  5
1CA
  8
0
  2
*U15
 10
0.0
 20
0.0
 30
0.0
  0
POINT
  5
1CB
  8
DEFPOINTS
 62
     0
 10
29.99999999999979
 20
-10.000000000000201
 30
0.0
  0
POINT
  5
1CC
  8
DEFPOINTS
 62
     0
 10
55.56113862081925
 20
0.0
 30
0.0
  0
POINT
  5
1CD
  8
DEFPOINTS
 62
     0
 10
56.975352183192342
 20
-0.0000000000000004
 30
0.0
  0
ENDBLK
  5
DA
  8
0
  0
BLOCK
  8
0
  2
DIMBLOCK4-REF__LEVEL
 70
     0
 10
0.0
 20
0.0
 30
0.0
  3
DIMBLOCK4-REF__LEVEL
  1

  0
LINE
  5
1BA
  8
0
 62
     0
 10
-14.033320996791049
 20
-37.732050807569067
 30
0.0
 11
-3.4097322048098411
 21
-56.132646353999817
 31
0.0
  0
LINE
  5
1BB
  8
0
 62
     0
 10
30.99999999999978
 20
-11.732050807569079
 30
0.0
 11
41.623588791981
 21
-30.132646353999849
 31
0.0
  0
LINE
  5
1BC
  8
0
 62
     0
 10
-4.4097322048098411
 20
-54.400595546430942
 30
0.0
 11
40.623588791980993
 21
-28.40059554643096
 31
0.0
  0
INSERT
  5
1BD
  8
0
 62
     0
  2
_OBLIQUE
 10
-4.4097322048098411
 20
-54.400595546430942
 30
0.0
 41
2.0
 42
2.0
 43
2.0
 50
210.0
  0
INSERT
  5
1BE
  8
0
 62
     0
  2
_OBLIQUE
 10
40.623588791980993
 20
-28.40059554643096
 30
0.0
 41
2.0
 42
2.0
 43
2.0
 50
29.999999999999961
  0
INSERT
  5
1BF
  8
0
  2
*U14
 10
0.0
 20
0.0
 30
0.0
  0
POINT
  5
1C0
  8
DEFPOINTS
 62
     0
 10
-15.033320996791049
 20
-36.000000000000192
 30
0.0
  0
POINT
  5
1C1
  8
DEFPOINTS
 62
     0
 10
29.99999999999979
 20
-10.000000000000201
 30
0.0
  0
POINT
  5
1C2
  8
DEFPOINTS
 62
     0
 10
40.623588791980993
 20
-28.40059554643096
 30
0.0
  0
ENDBLK
  5
F6
  8
0
  0
BLOCK
  8
0
  2
DIMBLOCK5-REF__LEVEL
 70
     0
 10
0.0
 20
0.0
 30
0.0
  3
DIMBLOCK5-REF__LEVEL
  1

  0
LINE
  5
1B0
  8
0
 62
     0
 10
29.999999978822519
 20
-12.000000304800199
 30
0.0
 11
29.99999954610275
 21
-52.866442088581529
 31
0.0
  0
LINE
  5
1B1
  8
0
 62
     0
 10
31.732051065610221
 20
-8.9999998373412886
 30
0.0
 11
67.123427691617053
 21
11.43322126417196
 31
0.0
  0
ARC
  5
1B2
  8
0
 62
     0
 10
29.99999999999979
 20
-10.000000000000201
 30
0.0
 40
40.866442088581337
 50
269.99999939331599
 51
30.000000339362028
  0
INSERT
  5
1B3
  8
0
 62
     0
  2
_OBLIQUE
 10
29.99999956728001
 20
-50.866442088581543
 30
0.0
 41
2.0
 42
2.0
 43
2.0
 50
179.99999939331599
  0
INSERT
  5
1B4
  8
0
 62
     0
  2
_OBLIQUE
 10
65.391376889971156
 20
10.43322125391305
 30
0.0
 41
2.0
 42
2.0
 43
2.0
 50
120.0000003393621
  0
INSERT
  5
1B5
  8
0
  2
*U13
 10
0.0
 20
0.0
 30
0.0
  0
POINT
  5
1B6
  8
DEFPOINTS
 62
     0
 10
29.99999999999979
 20
-10.000000000000201
 30
0.0
  0
POINT
  5
1B7
  8
DEFPOINTS
 62
     0
 10
29.99999999999979
 20
-10.000000304800199
 30
0.0
  0
POINT
  5
1B8
  8
DEFPOINTS
 62
     0
 10
30.000000263964331
 20
-9.9999998476001988
 30
0.0
  0
POINT
  5
1B9
  8
DEFPOINTS
 62
     0
 10
70.245589009833282
 20
-17.096383179546098
 30
0.0
  0
ENDBLK
  5
112
  8
0
  0
BLOCK
  8
0
  2
DIMBLOCK6-REF__LEVEL
 70
     0
 10
0.0
 20
0.0
 30
0.0
  3
DIMBLOCK6-REF__LEVEL
  1

  0
LINE
  5
1A7
  8
0
 62
     0
 10
-42.108818694092221
 20
-30.389395483936891
 30
0.0
 11
-57.479731134139811
 21
-50.787285241082671
 31
0.0
  0
LINE
  5
1A8
  8
0
 62
     0
 10
-22.142930942909931
 20
-45.434771062738129
 30
0.0
 11
-37.513843382957532
 21
-65.832660819883927
 31
0.0
  0
LINE
  5
1A9
  8
0
 62
     0
 10
-56.276101087835713
 20
-49.190014220988083
 30
0.0
 11
-36.310213336653419
 21
-64.235389799789345
 31
0.0
  0
INSERT
  5
1AA
  8
0
 62
     0
  2
_OBLIQUE
 10
-56.276101087835713
 20
-49.190014220988083
 30
0.0
 41
2.0
 42
2.0
 43
2.0
 50
142.9999999999998
  0
INSERT
  5
1AB
  8
0
 62
     0
  2
_OBLIQUE
 10
-36.310213336653419
 20
-64.235389799789345
 30
0.0
 41
2.0
 42
2.0
 43
2.0
 50
322.99999999999977
  0
INSERT
  5
1AC
  8
0
  2
*U12
 10
0.0
 20
0.0
 30
0.0
  0
POINT
  5
1AD
  8
DEFPOINTS
 62
     0
 10
-40.905188647788123
 20
-28.792124463842299
 30
0.0
  0
POINT
  5
1AE
  8
DEFPOINTS
 62
     0
 10
-20.939300896605829
 20
-43.837500042643562
 30
0.0
  0
POINT
  5
1AF
  8
DEFPOINTS
 62
     0
 10
-36.310213336653419
 20
-64.235389799789345
 30
0.0
  0
ENDBLK
  5
12E
  8
0
  0
BLOCK
  8
0
  2
DIMBLOCK7-REF__LEVEL
 70
     0
 10
0.0
 20
0.0
 30
0.0
  3
DIMBLOCK7-REF__LEVEL
  1

  0
LINE
  5
19C
  8
0
 62
     0
 10
-25.717326178264269
 20
-41.869953044627358
 30
0.0
 11
-30.11770156274703
 21
-47.709448411791122
 31
0.0
  0
LINE
  5
19D
  8
0
 62
     0
 10
-22.142930942909921
 20
-45.434771062738129
 30
0.0
 11
-26.12452401251057
 21
-50.718523527551362
 31
0.0
  0
LINE
  5
19E
  8
0
 62
     0
 10
-28.914071516442931
 20
-46.112177391696527
 30
0.0
 11
-30.511342536537519
 21
-44.908547345392428
 31
0.0
  0
LINE
  5
19F
  8
0
 62
     0
 10
-24.920893966206471
 20
-49.121252507456781
 30
0.0
 11
-23.32362294611189
 21
-50.324882553760879
 31
0.0
  0
LINE
  5
1A0
  8
0
 62
     0
 10
-28.914071516442931
 20
-46.112177391696527
 30
0.0
 11
-24.920893966206471
 21
-49.121252507456781
 31
0.0
  0
INSERT
  5
1A1
  8
0
 62
     0
  2
_OBLIQUE
 10
-28.914071516442931
 20
-46.112177391696527
 30
0.0
 41
2.0
 42
2.0
 43
2.0
 50
322.99999999999989
  0
INSERT
  5
1A2
  8
0
 62
     0
  2
_OBLIQUE
 10
-24.920893966206471
 20
-49.121252507456781
 30
0.0
 41
2.0
 42
2.0
 43
2.0
 50
142.99999999999989
  0
INSERT
  5
1A3
  8
0
  2
*U11
 10
0.0
 20
0.0
 30
0.0
  0
POINT
  5
1A4
  8
DEFPOINTS
 62
     0
 10
-24.51369613196017
 20
-40.27268202453277
 30
0.0
  0
POINT
  5
1A5
  8
DEFPOINTS
 62
     0
 10
-20.939300896605829
 20
-43.837500042643548
 30
0.0
  0
POINT
  5
1A6
  8
DEFPOINTS
 62
     0
 10
-24.920893966206471
 20
-49.121252507456781
 30
0.0
  0
ENDBLK
  5
148
  8
0
  0
BLOCK
  8
0
  2
DIMBLOCK8-REF__LEVEL
 70
     0
 10
0.0
 20
0.0
 30
0.0
  3
DIMBLOCK8-REF__LEVEL
  1

  0
LINE
  5
192
  8
0
 62
     0
 10
-1.0818106080631009
 20
-27.945091721466252
 30
0.0
 11
-4.5459122232008529
 21
-29.945091721466252
 31
0.0
  0
LINE
  5
193
  8
0
 62
     0
 10
-27.89919255961324
 20
-26.304870375733081
 30
0.0
 11
-24.704650519424082
 21
-28.712130468341289
 31
0.0
  0
ARC
  5
194
  8
0
 62
     0
 10
-15.033320996791049
 20
-36.000000000000178
 30
0.0
 40
14.10981655706788
 50
29.999999999999961
 51
142.99999999999969
  0
INSERT
  5
195
  8
0
 62
     0
  2
_OBLIQUE
 10
-2.813861415631977
 20
-28.945091721466252
 30
0.0
 41
2.0
 42
2.0
 43
2.0
 50
300.0
  0
INSERT
  5
196
  8
0
 62
     0
  2
_OBLIQUE
 10
-26.301921539518659
 20
-27.50850042203718
 30
0.0
 41
2.0
 42
2.0
 43
2.0
 50
232.99999999999969
  0
INSERT
  5
197
  8
0
  2
*U10
 10
0.0
 20
0.0
 30
0.0
  0
POINT
  5
198
  8
DEFPOINTS
 62
     0
 10
-15.033320996791049
 20
-36.000000000000178
 30
0.0
  0
POINT
  5
199
  8
DEFPOINTS
 62
     0
 10
0.6502401995057767
 20
-26.945091721466259
 30
0.0
  0
POINT
  5
19A
  8
DEFPOINTS
 62
     0
 10
-29.496463579707822
 20
-25.101240329428979
 30
0.0
  0
POINT
  5
19B
  8
DEFPOINTS
 62
     0
 10
-9.6716702777289552
 20
-22.948577669813801
 30
0.0
  0
ENDBLK
  5
166
  8
0
  0
BLOCK
  8
0
  2
*U10
 70
     1
 10
0.0
 20
0.0
 30
0.0
  3
*U10
  1

  0
TEXT
  5
28D
  8
0
 62
     0
 10
-21.248300683749459
 20
-19.421477807766578
 30
0.0
 40
2.9505988023952101
  1
113.00°
 50
356.49999999999989
  7
ARIAL
  0
ENDBLK
  5
28F
  8
0
  0
BLOCK
  8
0
  2
*U11
 70
     1
 10
0.0
 20
0.0
 30
0.0
  3
*U11
  1

  0
TEXT
  5
291
  8
0
 62
     0
 10
-28.873043576701601
 20
-43.568258453145859
 30
0.0
 40
2.9505988023952101
  1
5.00
 50
322.99999999999989
  7
ARIAL
  0
ENDBLK
  5
293
  8
0
  0
BLOCK
  8
0
  2
*U12
 70
     1
 10
0.0
 20
0.0
 30
0.0
  3
*U12
  1

  0
TEXT
  5
295
  8
0
 62
     0
 10
-49.144041587579963
 20
-51.989570834269813
 30
0.0
 40
2.9505988023952101
  1
25.00
 50
322.99999999999977
  7
ARIAL
  0
ENDBLK
  5
297
  8
0
  0
BLOCK
  8
0
  2
*U13
 70
     1
 10
0.0
 20
0.0
 30
0.0
  3
*U13
  1

  0
TEXT
  5
299
  8
0
 62
     0
 10
60.00278005853329
 20
-35.653834275801948
 30
0.0
 40
2.9505988023952101
  1
120.00°
 50
59.999999949818161
  7
ARIAL
  0
ENDBLK
  5
29B
  8
0
  0
BLOCK
  8
0
  2
*U14
 70
     1
 10
0.0
 20
0.0
 30
0.0
  3
*U14
  1

  0
TEXT
  5
29D
  8
0
 62
     0
 10
12.62354587991776
 20
-42.191953368413287
 30
0.0
 40
2.9505988023952101
  1
52.00
 50
29.999999999999961
  7
ARIAL
  0
ENDBLK
  5
29F
  8
0
  0
BLOCK
  8
0
  2
*U15
 70
     1
 10
0.0
 20
0.0
 30
0.0
  3
*U15
  1

  0
TEXT
  5
2A1
  8
0
 62
     0
 10
54.918996953678658
 20
-10.283302766908299
 30
0.0
 40
2.9505988023952101
  1
10.00
 50
90.0
  7
ARIAL
  0
ENDBLK
  5
2A3
  8
0
  0
BLOCK
  8
0
  2
*U16
 70
     1
 10
0.0
 20
0.0
 30
0.0
  3
*U16
  1

  0
TEXT
  5
2A5
  8
0
 62
     0
 10
12.560064166600879
 20
26.711064210857501
 30
0.0
 40
2.9505988023952101
  1
30.00
  7
ARIAL
  0
ENDBLK
  5
2A7
  8
0
  0
BLOCK
  8
0
  2
*U17
 70
     1
 10
0.0
 20
0.0
 30
0.0
  3
*U17
  1

  0
TEXT
  5
2A9
  8
0
 62
     0
 10
-41.815525088654503
 20
36.357585306876011
 30
0.0
 40
2.9505988023952101
  1
83.00
 50
90.0
  7
ARIAL
  0
ENDBLK
  5
2AB
  8
0
  0
ENDSEC
  0
SECTION
  2
ENTITIES
  0
LINE
  5
88
  8
0
 10
-0.0000000000000162
 20
83.0
 30
0.0
 11
-0.0000000000000162
 21
-0.0000000000000169
 31
0.0
1001
REVIT
1002
{
1070
     1
1000
256522
1002
}
1002
{
1070
     2
1000
-2002000
1002
}
1002
{
1070
     3
1000
206783
1002
}
  0
LINE
  5
89
  8
0
 10
-0.0000000000000159
 20
-0.0000000000000088
 30
0.0
 11
29.999999999999801
 21
-0.0000000000001072
 31
0.0
1001
REVIT
1002
{
1070
     1
1000
256523
1002
}
1002
{
1070
     2
1000
-2002000
1002
}
1002
{
1070
     3
1000
206783
1002
}
  0
LINE
  5
8A
  8
0
 10
29.999999999999801
 20
-0.0000000000001071
 30
0.0
 11
29.99999999999979
 21
-10.000000000000201
 31
0.0
1001
REVIT
1002
{
1070
     1
1000
256524
1002
}
1002
{
1070
     2
1000
-2002000
1002
}
1002
{
1070
     3
1000
206783
1002
}
  0
LINE
  5
8B
  8
0
 10
-21.02308732214572
 20
-31.486387326359811
 30
0.0
 11
-17.029909771909288
 21
-34.495462442120051
 31
0.0
1001
REVIT
1002
{
1070
     1
1000
256533
1002
}
1002
{
1070
     2
1000
-2002000
1002
}
1002
{
1070
     3
1000
206785
1002
}
  0
LINE
  5
8C
  8
0
 10
-21.023087322145741
 20
-31.48638732635979
 30
0.0
 11
-34.960347418551713
 21
-20.983908533376919
 31
0.0
1001
REVIT
1002
{
1070
     1
1000
256535
1002
}
1002
{
1070
     2
1000
-2002000
1002
}
1002
{
1070
     3
1000
206783
1002
}
  0
LINE
  5
8D
  8
0
 10
29.99999999999979
 20
-10.000000000000201
 30
0.0
 11
-15.033320996791049
 21
-36.000000000000192
 31
0.0
1001
REVIT
1002
{
1070
     1
1000
256525
1002
}
1002
{
1070
     2
1000
-2002000
1002
}
1002
{
1070
     3
1000
206783
1002
}
  0
LINE
  5
8E
  8
0
 10
-17.029909771909288
 20
-34.495462442120051
 30
0.0
 11
-15.03332099679103
 21
-36.000000000000192
 31
0.0
1001
REVIT
1002
{
1070
     1
1000
256541
1002
}
1002
{
1070
     2
1000
-2002000
1002
}
1002
{
1070
     3
1000
206783
1002
}
  0
ENDSEC
  0
EOF
