  0
SECTION
  2
HEADER
  9
$ACADVER
  1
AC1009
  9
$INSBASE
 10
0.0
 20
0.0
 30
0.0
  9
$EXTMIN
 10
-203.06646112607939
 20
-442.55631494850218
 30
0.0
  9
$EXTMAX
 10
214.73220924356741
 20
188.00550440356179
 30
0.0
  9
$LIMMIN
 10
0.0
 20
0.0
  9
$LIMMAX
 10
12.0
 20
9.0
  9
$ORTHOMODE
 70
     0
  9
$REGENMODE
 70
     1
  9
$FILLMODE
 70
     1
  9
$QTEXTMODE
 70
     0
  9
$MIRRTEXT
 70
     0
  9
$DRAGMODE
 70
     2
  9
$LTSCALE
 40
1.0
  9
$OSMODE
 70
   127
  9
$ATTMODE
 70
     1
  9
$TEXTSIZE
 40
0.2
  9
$TRACEWID
 40
0.05
  9
$TEXTSTYLE
  7
STANDARD
  9
$CLAYER
  8
0
  9
$CELTYPE
  6
BYLAYER
  9
$CECOLOR
 62
   256
  9
$DIMSCALE
 40
1.0
  9
$DIMASZ
 40
0.18
  9
$DIMEXO
 40
0.0625
  9
$DIMDLI
 40
0.38
  9
$DIMRND
 40
0.0
  9
$DIMDLE
 40
0.0
  9
$DIMEXE
 40
0.18
  9
$DIMTP
 40
0.0
  9
$DIMTM
 40
0.0
  9
$DIMTXT
 40
0.18
  9
$DIMCEN
 40
0.09
  9
$DIMTSZ
 40
0.0
  9
$DIMTOL
 70
     0
  9
$DIMLIM
 70
     0
  9
$DIMTIH
 70
     1
  9
$DIMTOH
 70
     1
  9
$DIMSE1
 70
     0
  9
$DIMSE2
 70
     0
  9
$DIMTAD
 70
     0
  9
$DIMZIN
 70
     0
  9
$DIMBLK
  1

  9
$DIMASO
 70
     1
  9
$DIMSHO
 70
     1
  9
$DIMPOST
  1

  9
$DIMAPOST
  1

  9
$DIMALT
 70
     0
  9
$DIMALTD
 70
     2
  9
$DIMALTF
 40
25.399999999999999
  9
$DIMLFAC
 40
1.0
  9
$DIMTOFL
 70
     0
  9
$DIMTVP
 40
0.0
  9
$DIMTIX
 70
     0
  9
$DIMSOXD
 70
     0
  9
$DIMSAH
 70
     0
  9
$DIMBLK1
  1

  9
$DIMBLK2
  1

  9
$DIMSTYLE
  2
STANDARD
  9
$DIMCLRD
 70
     0
  9
$DIMCLRE
 70
     0
  9
$DIMCLRT
 70
     0
  9
$DIMTFAC
 40
1.0
  9
$DIMGAP
 40
0.09
  9
$LUNITS
 70
     2
  9
$LUPREC
 70
     4
  9
$SKETCHINC
 40
0.1
  9
$FILLETRAD
 40
0.0
  9
$AUNITS
 70
     0
  9
$AUPREC
 70
     0
  9
$MENU
  1
.
  9
$ELEVATION
 40
0.0
  9
$PELEVATION
 40
0.0
  9
$THICKNESS
 40
0.0
  9
$LIMCHECK
 70
     0
  9
$BLIPMODE
 70
     0
  9
$CHAMFERA
 40
0.0
  9
$CHAMFERB
 40
0.0
  9
$SKPOLY
 70
     0
  9
$TDCREATE
 40
2457375.559547327
  9
$TDUPDATE
 40
2457378.9934215741
  9
$TDINDWG
 40
0.0001369907
  9
$TDUSRTIMER
 40
0.0001369907
  9
$USRTIMER
 70
     1
  9
$ANGBASE
 50
0.0
  9
$ANGDIR
 70
     0
  9
$PDMODE
 70
     0
  9
$PDSIZE
 40
0.0
  9
$PLINEWID
 40
0.0
  9
$COORDS
 70
     2
  9
$SPLFRAME
 70
     0
  9
$SPLINETYPE
 70
     6
  9
$SPLINESEGS
 70
     8
  9
$ATTDIA
 70
     0
  9
$ATTREQ
 70
     0
  9
$HANDLING
 70
     1
  9
$HANDSEED
  5
1F3
  9
$SURFTAB1
 70
     6
  9
$SURFTAB2
 70
     6
  9
$SURFTYPE
 70
     6
  9
$SURFU
 70
     6
  9
$SURFV
 70
     6
  9
$UCSNAME
  2

  9
$UCSORG
 10
0.0
 20
0.0
 30
0.0
  9
$UCSXDIR
 10
1.0
 20
0.0
 30
0.0
  9
$UCSYDIR
 10
0.0
 20
1.0
 30
0.0
  9
$PUCSNAME
  2

  9
$PUCSORG
 10
0.0
 20
0.0
 30
0.0
  9
$PUCSXDIR
 10
1.0
 20
0.0
 30
0.0
  9
$PUCSYDIR
 10
0.0
 20
1.0
 30
0.0
  9
$USERI1
 70
     0
  9
$USERI2
 70
     0
  9
$USERI3
 70
     0
  9
$USERI4
 70
     0
  9
$USERI5
 70
     0
  9
$USERR1
 40
0.0
  9
$USERR2
 40
0.0
  9
$USERR3
 40
0.0
  9
$USERR4
 40
0.0
  9
$USERR5
 40
0.0
  9
$WORLDVIEW
 70
     1
  9
$SHADEDGE
 70
     3
  9
$SHADEDIF
 70
    70
  9
$TILEMODE
 70
     1
  9
$MAXACTVP
 70
    64
  9
$PLIMCHECK
 70
     0
  9
$PEXTMIN
 10
0.0
 20
0.0
 30
0.0
  9
$PEXTMAX
 10
0.0
 20
0.0
 30
0.0
  9
$PLIMMIN
 10
0.0
 20
0.0
  9
$PLIMMAX
 10
12.0
 20
9.0
  9
$UNITMODE
 70
     0
  9
$VISRETAIN
 70
     1
  9
$PLINEGEN
 70
     0
  9
$PSLTSCALE
 70
     1
  0
ENDSEC
  0
SECTION
  2
TABLES
  0
TABLE
  2
VPORT
 70
     1
  0
VPORT
  2
*ACTIVE
 70
     0
 10
0.0
 20
0.0
 11
1.0
 21
1.0
 12
497.3545853119731
 22
-127.2754052724701
 13
0.0
 23
0.0
 14
1.0
 24
1.0
 15
0.0
 25
0.0
 16
0.0
 26
0.0
 36
1.0
 17
0.0
 27
0.0
 37
0.0
 40
523.30544529044244
 41
1.7244755244755241
 42
50.0
 43
0.0
 44
0.0
 50
0.0
 51
0.0
 71
     0
 72
  1000
 73
     1
 74
     3
 75
     0
 76
     0
 77
     0
 78
     0
  0
ENDTAB
  0
TABLE
  2
LTYPE
 70
     2
  0
LTYPE
  2
CONTINUOUS
 70
     0
  3
Solid line
 72
    65
 73
     0
 40
0.0
  0
ENDTAB
  0
TABLE
  2
LAYER
 70
     3
  0
LAYER
  2
0
 70
     0
 62
     7
  6
CONTINUOUS
  0
ENDTAB
  0
TABLE
  2
STYLE
 70
     2
  0
STYLE
  2
STANDARD
 70
     0
 40
0.0
 41
1.0
 50
0.0
 71
     0
 42
0.2
  3
txt
  4

  0
ENDTAB
  0
TABLE
  2
VIEW
 70
     0
  0
ENDTAB
  0
TABLE
  2
UCS
 70
     0
  0
ENDTAB
  0
TABLE
  2
APPID
 70
     5
  0
APPID
  2
ACAD
 70
     0
  0
APPID
  2
ACADANNOTATIVE
 70
     0
  0
APPID
  2
REVIT
 70
     0
  0
APPID
  2
ACAD_NAV_VCDISPLAY
 70
     0
  0
APPID
  2
ACAD_MLEADERVER
 70
     0
  0
ENDTAB
  0
TABLE
  2
DIMSTYLE
 70
     2
  0
DIMSTYLE
  2
STANDARD
 70
     0
  3

  4

  5

  6

  7

 40
1.0
 41
0.18
 42
0.0625
 43
0.38
 44
0.18
 45
0.0
 46
0.0
 47
0.0
 48
0.0
140
0.18
141
0.09
142
0.0
143
25.399999999999999
144
1.0
145
0.0
146
1.0
147
0.09
 71
     0
 72
     0
 73
     1
 74
     1
 75
     0
 76
     0
 77
     0
 78
     0
170
     0
171
     2
172
     0
173
     0
174
     0
175
     0
176
     0
177
     0
178
     0
  0
ENDTAB
  0
ENDSEC
  0
SECTION
  2
BLOCKS
  0
BLOCK
  8
0
  2
$MODEL_SPACE
 70
     0
 10
0.0
 20
0.0
 30
0.0
  3
$MODEL_SPACE
  1

  0
ENDBLK
  5
72
  8
0
  0
BLOCK
 67
     1
  8
0
  2
$PAPER_SPACE
 70
     0
 10
0.0
 20
0.0
 30
0.0
  3
$PAPER_SPACE
  1

  0
ENDBLK
  5
76
 67
     1
  8
0
  0
ENDSEC
  0
SECTION
  2
ENTITIES
  0
LINE
  5
88
  8
0
 10
-191.61753919458349
 20
-39.783696219761488
 30
0.0
 11
-191.61753919458349
 21
-12.85990338487758
 31
0.0
1001
REVIT
1002
{
1070
     1
1000
330337
1002
}
1002
{
1070
     2
1000
-2002000
1002
}
1002
{
1070
     3
1000
100712
1002
}
  0
LINE
  5
89
  8
0
 10
-191.61753919458349
 20
-12.85990338487758
 30
0.0
 11
-191.61753919458349
 21
-4.5089183690954924
 31
0.0
1001
REVIT
1002
{
1070
     1
1000
330338
1002
}
1002
{
1070
     2
1000
-2002000
1002
}
1002
{
1070
     3
1000
100712
1002
}
  0
LINE
  5
8A
  8
0
 10
-191.61753919458349
 20
-4.5089183690954933
 30
0.0
 11
-186.0348008465308
 21
-10.01869620661166
 31
0.0
1001
REVIT
1002
{
1070
     1
1000
330339
1002
}
1002
{
1070
     2
1000
-2002000
1002
}
1002
{
1070
     3
1000
100712
1002
}
  0
LINE
  5
8B
  8
0
 10
-186.0348008465308
 20
-10.01869620661166
 30
0.0
 11
-191.61753919458349
 21
-4.5089183690954906
 31
0.0
1001
REVIT
1002
{
1070
     1
1000
330340
1002
}
1002
{
1070
     2
1000
-2002000
1002
}
1002
{
1070
     3
1000
100712
1002
}
  0
LINE
  5
8C
  8
0
 10
-191.61753919458349
 20
-4.5089183690954924
 30
0.0
 11
-94.145637854065484
 21
45.097179660646937
 31
0.0
1001
REVIT
1002
{
1070
     1
1000
330341
1002
}
1002
{
1070
     2
1000
-2002000
1002
}
1002
{
1070
     3
1000
100712
1002
}
  0
LINE
  5
8D
  8
0
 10
-94.145637854065484
 20
45.097179660646937
 30
0.0
 11
-88.562899506012698
 21
39.587401823130769
 31
0.0
1001
REVIT
1002
{
1070
     1
1000
330342
1002
}
1002
{
1070
     2
1000
-2002000
1002
}
1002
{
1070
     3
1000
100712
1002
}
  0
LINE
  5
8E
  8
0
 10
-88.562899506012698
 20
39.587401823130769
 30
0.0
 11
-64.981267560345444
 21
16.313956971104119
 31
0.0
1001
REVIT
1002
{
1070
     1
1000
330343
1002
}
1002
{
1070
     2
1000
-2002000
1002
}
1002
{
1070
     3
1000
100712
1002
}
  0
LINE
  5
8F
  8
0
 10
-64.981267560345444
 20
16.313956971104119
 30
0.0
 11
-138.87153695519621
 21
-21.290808059998991
 31
0.0
1001
REVIT
1002
{
1070
     1
1000
330344
1002
}
1002
{
1070
     2
1000
-2002000
1002
}
1002
{
1070
     3
1000
100712
1002
}
  0
LINE
  5
90
  8
0
 10
-138.87153695519621
 20
-21.290808059999002
 30
0.0
 11
-64.981267560345472
 21
16.313956971104108
 31
0.0
1001
REVIT
1002
{
1070
     1
1000
330345
1002
}
1002
{
1070
     2
1000
-2002000
1002
}
1002
{
1070
     3
1000
100712
1002
}
  0
LINE
  5
91
  8
0
 10
-64.98126756034543
 20
16.313956971104119
 30
0.0
 11
-64.98126756034543
 21
51.58873482177011
 31
0.0
1001
REVIT
1002
{
1070
     1
1000
330346
1002
}
1002
{
1070
     2
1000
-2002000
1002
}
1002
{
1070
     3
1000
100712
1002
}
  0
LINE
  5
92
  8
0
 10
-64.98126756034543
 20
51.58873482177011
 30
0.0
 11
-162.4531689008634
 21
1.982636792027636
 31
0.0
1001
REVIT
1002
{
1070
     1
1000
330347
1002
}
1002
{
1070
     2
1000
-2002000
1002
}
1002
{
1070
     3
1000
100712
1002
}
  0
LINE
  5
93
  8
0
 10
-162.45316890086349
 20
1.9826367920276109
 30
0.0
 11
-162.45316890086349
 21
-33.292141058638322
 31
0.0
1001
REVIT
1002
{
1070
     1
1000
330348
1002
}
1002
{
1070
     2
1000
-2002000
1002
}
1002
{
1070
     3
1000
100712
1002
}
  0
LINE
  5
96
  8
0
 10
-162.45316890086349
 20
-68.56691890930432
 30
0.0
 11
-191.61753919458349
 21
-39.783696219761488
 31
0.0
1001
REVIT
1002
{
1070
     1
1000
330349
1002
}
1002
{
1070
     2
1000
-2002000
1002
}
1002
{
1070
     3
1000
-2009514
1002
}
  0
LINE
  5
97
  8
0
 10
-52.062214156711669
 20
-105.3964155649942
 30
0.0
 11
110.3909547441518
 21
-22.71958551542351
 31
0.0
1001
REVIT
1002
{
1070
     1
1000
330350
1002
}
1002
{
1070
     2
1000
-2002000
1002
}
1002
{
1070
     3
1000
-2009514
1002
}
  0
LINE
  5
98
  8
0
 10
-52.062214156711669
 20
-317.04508266899018
 30
0.0
 11
-110.3909547441517
 21
-259.4786372899045
 31
0.0
1001
REVIT
1002
{
1070
     1
1000
330351
1002
}
1002
{
1070
     2
1000
-2002000
1002
}
1002
{
1070
     3
1000
-2009514
1002
}
  0
LINE
  5
99
  8
0
 10
-110.3909547441517
 20
-259.4786372899045
 30
0.0
 11
-110.3909547441517
 21
-47.82997018590855
 31
0.0
1001
REVIT
1002
{
1070
     1
1000
330352
1002
}
1002
{
1070
     2
1000
-2002000
1002
}
1002
{
1070
     3
1000
-2009514
1002
}
  0
LINE
  5
9A
  8
0
 10
-110.3909547441517
 20
-47.829970185908557
 30
0.0
 11
-52.062214156711683
 21
-105.3964155649942
 31
0.0
1001
REVIT
1002
{
1070
     1
1000
330353
1002
}
1002
{
1070
     2
1000
-2002000
1002
}
1002
{
1070
     3
1000
-2009514
1002
}
  0
LINE
  5
9B
  8
0
 10
-52.062214156711669
 20
-105.3964155649942
 30
0.0
 11
-52.062214156711669
 21
-317.04508266899018
 31
0.0
1001
REVIT
1002
{
1070
     1
1000
330354
1002
}
1002
{
1070
     2
1000
-2002000
1002
}
1002
{
1070
     3
1000
-2009514
1002
}
  0
LINE
  5
9C
  8
0
 10
-52.062214156711669
 20
-317.04508266899018
 30
0.0
 11
110.3909547441518
 21
-234.36825261941951
 31
0.0
1001
REVIT
1002
{
1070
     1
1000
330355
1002
}
1002
{
1070
     2
1000
-2002000
1002
}
1002
{
1070
     3
1000
-2009514
1002
}
  0
LINE
  5
9D
  8
0
 10
110.3909547441518
 20
-234.36825261941951
 30
0.0
 11
110.3909547441518
 21
-22.719585515423489
 31
0.0
1001
REVIT
1002
{
1070
     1
1000
330356
1002
}
1002
{
1070
     2
1000
-2002000
1002
}
1002
{
1070
     3
1000
-2009514
1002
}
  0
LINE
  5
9E
  8
0
 10
110.3909547441518
 20
-22.7195855154235
 30
0.0
 11
52.062214156711732
 21
34.846859863662203
 31
0.0
1001
REVIT
1002
{
1070
     1
1000
330357
1002
}
1002
{
1070
     2
1000
-2002000
1002
}
1002
{
1070
     3
1000
-2009514
1002
}
  0
LINE
  5
9F
  8
0
 10
52.062214156711732
 20
34.846859863662182
 30
0.0
 11
-110.3909547441518
 21
-47.829970185908579
 31
0.0
1001
REVIT
1002
{
1070
     1
1000
330358
1002
}
1002
{
1070
     2
1000
-2002000
1002
}
1002
{
1070
     3
1000
-2009514
1002
}
  0
LINE
  5
A0
  8
0
 10
204.81632334370261
 20
-131.19448961380471
 30
0.0
 11
203.0664611260793
 21
-129.46749625243211
 31
0.0
1001
REVIT
1002
{
1070
     1
1000
330359
1002
}
1002
{
1070
     2
1000
-2002000
1002
}
1002
{
1070
     3
1000
100712
1002
}
  0
LINE
  5
A1
  8
0
 10
203.0664611260793
 20
-129.46749625243211
 30
0.0
 11
203.0664611260793
 21
-132.08504202441901
 31
0.0
1001
REVIT
1002
{
1070
     1
1000
330360
1002
}
1002
{
1070
     2
1000
-2002000
1002
}
1002
{
1070
     3
1000
100712
1002
}
  0
LINE
  5
A2
  8
0
 10
203.0664611260793
 20
-132.08504202441901
 30
0.0
 11
203.1243503640774
 21
-143.5479459871498
 31
0.0
1001
REVIT
1002
{
1070
     1
1000
330361
1002
}
1002
{
1070
     2
1000
-2002000
1002
}
1002
{
1070
     3
1000
100712
1002
}
  0
LINE
  5
A3
  8
0
 10
203.1243503640774
 20
-143.5479459871498
 30
0.0
 11
203.06646112607959
 21
-132.08504202446389
 31
0.0
1001
REVIT
1002
{
1070
     1
1000
330362
1002
}
1002
{
1070
     2
1000
-2002000
1002
}
1002
{
1070
     3
1000
100712
1002
}
  0
LINE
  5
A4
  8
0
 10
203.06646112607939
 20
-132.08504202442569
 30
0.0
 11
203.06646112607939
 21
-143.57740739269849
 31
0.0
1001
REVIT
1002
{
1070
     1
1000
330363
1002
}
1002
{
1070
     2
1000
-2002000
1002
}
1002
{
1070
     3
1000
100712
1002
}
  0
LINE
  5
A5
  8
0
 10
203.06646112607939
 20
-143.57740739269849
 30
0.0
 11
214.7322092435673
 21
-155.09069646851569
 31
0.0
1001
REVIT
1002
{
1070
     1
1000
330364
1002
}
1002
{
1070
     2
1000
-2002000
1002
}
1002
{
1070
     3
1000
100712
1002
}
  0
LINE
  5
A6
  8
0
 10
214.7322092435673
 20
-155.09069646851569
 30
0.0
 11
214.7322092435673
 21
-140.98078532824931
 31
0.0
1001
REVIT
1002
{
1070
     1
1000
330365
1002
}
1002
{
1070
     2
1000
-2002000
1002
}
1002
{
1070
     3
1000
100712
1002
}
  0
LINE
  5
A7
  8
0
 10
214.7322092435673
 20
-140.98078532824931
 30
0.0
 11
204.81632334370261
 21
-131.19448961380479
 31
0.0
1001
REVIT
1002
{
1070
     1
1000
330366
1002
}
1002
{
1070
     2
1000
-2002000
1002
}
1002
{
1070
     3
1000
100712
1002
}
  0
LINE
  5
A8
  8
0
 10
204.81632334370261
 20
-131.19448961380471
 30
0.0
 11
196.69366489865939
 21
-135.32833111628321
 31
0.0
1001
REVIT
1002
{
1070
     1
1000
330367
1002
}
1002
{
1070
     2
1000
-2002000
1002
}
1002
{
1070
     3
1000
100712
1002
}
  0
LINE
  5
A9
  8
0
 10
196.69366489865939
 20
-135.32833111628321
 30
0.0
 11
196.69366489865939
 21
62.210424847446291
 31
0.0
1001
REVIT
1002
{
1070
     1
1000
330368
1002
}
1002
{
1070
     2
1000
-2002000
1002
}
1002
{
1070
     3
1000
100712
1002
}
  0
LINE
  5
AA
  8
0
 10
196.69366489865939
 20
62.210424847446291
 30
0.0
 11
204.81632334370261
 21
66.344266349924823
 31
0.0
1001
REVIT
1002
{
1070
     1
1000
330369
1002
}
1002
{
1070
     2
1000
-2002000
1002
}
1002
{
1070
     3
1000
100712
1002
}
  0
LINE
  5
AB
  8
0
 10
204.81632334370261
 20
66.344266349924823
 30
0.0
 11
204.81632334370261
 21
-131.19448961380471
 31
0.0
1001
REVIT
1002
{
1070
     1
1000
330370
1002
}
1002
{
1070
     2
1000
-2002000
1002
}
1002
{
1070
     3
1000
100712
1002
}
  0
LINE
  5
AC
  8
0
 10
204.81632334370261
 20
-131.19448961380471
 30
0.0
 11
203.0664611260793
 21
-129.46749625243211
 31
0.0
1001
REVIT
1002
{
1070
     1
1000
330371
1002
}
1002
{
1070
     2
1000
-2002000
1002
}
1002
{
1070
     3
1000
-2009514
1002
}
  0
LINE
  5
AD
  8
0
 10
203.0664611260793
 20
-129.46749625243211
 30
0.0
 11
203.1247898666669
 21
-132.05535694406521
 31
0.0
1001
REVIT
1002
{
1070
     1
1000
330372
1002
}
1002
{
1070
     2
1000
-2002000
1002
}
1002
{
1070
     3
1000
-2009514
1002
}
  0
LINE
  5
AE
  8
0
 10
203.1247898666669
 20
-132.05535694406521
 30
0.0
 11
203.1247898666669
 21
65.453713939310447
 31
0.0
1001
REVIT
1002
{
1070
     1
1000
330373
1002
}
1002
{
1070
     2
1000
-2002000
1002
}
1002
{
1070
     3
1000
-2009514
1002
}
  0
LINE
  5
AF
  8
0
 10
203.1247898666669
 20
65.453713939310447
 30
0.0
 11
203.0664611260795
 21
68.071259711297387
 31
0.0
1001
REVIT
1002
{
1070
     1
1000
330374
1002
}
1002
{
1070
     2
1000
-2002000
1002
}
1002
{
1070
     3
1000
100712
1002
}
  0
LINE
  5
B0
  8
0
 10
203.0664611260795
 20
68.071259711297387
 30
0.0
 11
204.81632334370261
 21
66.344266349924823
 31
0.0
1001
REVIT
1002
{
1070
     1
1000
330375
1002
}
1002
{
1070
     2
1000
-2002000
1002
}
1002
{
1070
     3
1000
100712
1002
}
  0
LINE
  5
B1
  8
0
 10
-203.0664611260793
 20
-138.62081541262941
 30
0.0
 11
-201.31659890845609
 21
-140.34780877400209
 31
0.0
1001
REVIT
1002
{
1070
     1
1000
330376
1002
}
1002
{
1070
     2
1000
-2002000
1002
}
1002
{
1070
     3
1000
100712
1002
}
  0
LINE
  5
B2
  8
0
 10
-201.31659890845609
 20
-140.34780877400209
 30
0.0
 11
-201.31659890845609
 21
-337.88656473773159
 31
0.0
1001
REVIT
1002
{
1070
     1
1000
330377
1002
}
1002
{
1070
     2
1000
-2002000
1002
}
1002
{
1070
     3
1000
100712
1002
}
  0
LINE
  5
B3
  8
0
 10
-201.31659890845609
 20
-337.88656473773159
 30
0.0
 11
-203.06646112607939
 21
-336.15957137635911
 31
0.0
1001
REVIT
1002
{
1070
     1
1000
330378
1002
}
1002
{
1070
     2
1000
-2002000
1002
}
1002
{
1070
     3
1000
100712
1002
}
  0
LINE
  5
B4
  8
0
 10
-203.06646112607939
 20
-336.15957137635911
 30
0.0
 11
-203.06646112607939
 21
-350.26948251662537
 31
0.0
1001
REVIT
1002
{
1070
     1
1000
330379
1002
}
1002
{
1070
     2
1000
-2002000
1002
}
1002
{
1070
     3
1000
100712
1002
}
  0
LINE
  5
B5
  8
0
 10
-203.06646112607939
 20
-350.26948251662537
 30
0.0
 11
-191.40071300859131
 21
-361.7827715924426
 31
0.0
1001
REVIT
1002
{
1070
     1
1000
330380
1002
}
1002
{
1070
     2
1000
-2002000
1002
}
1002
{
1070
     3
1000
100712
1002
}
  0
LINE
  5
B6
  8
0
 10
-191.40071300859131
 20
-361.7827715924426
 30
0.0
 11
-191.40071300859131
 21
-347.67286045217622
 31
0.0
1001
REVIT
1002
{
1070
     1
1000
330381
1002
}
1002
{
1070
     2
1000
-2002000
1002
}
1002
{
1070
     3
1000
100712
1002
}
  0
LINE
  5
B7
  8
0
 10
-191.40071300859131
 20
-347.67286045217622
 30
0.0
 11
-203.0081323854919
 21
-336.21713782173811
 31
0.0
1001
REVIT
1002
{
1070
     1
1000
330382
1002
}
1002
{
1070
     2
1000
-2002000
1002
}
1002
{
1070
     3
1000
100712
1002
}
  0
LINE
  5
B8
  8
0
 10
-203.0081323854919
 20
-336.21713782173822
 30
0.0
 11
-203.0081323854919
 21
-350.32704896200448
 31
0.0
1001
REVIT
1002
{
1070
     1
1000
330383
1002
}
1002
{
1070
     2
1000
-2002000
1002
}
1002
{
1070
     3
1000
100712
1002
}
  0
LINE
  5
B9
  8
0
 10
-203.0664611260793
 20
-350.26948251662537
 30
0.0
 11
-203.0664611260793
 21
-138.62081541262941
 31
0.0
1001
REVIT
1002
{
1070
     1
1000
330384
1002
}
1002
{
1070
     2
1000
-2002000
1002
}
1002
{
1070
     3
1000
100712
1002
}
  0
LINE
  5
BA
  8
0
 10
-203.0664611260793
 20
-138.62081541262941
 30
0.0
 11
-162.4531689008634
 21
-117.95160790023679
 31
0.0
1001
REVIT
1002
{
1070
     1
1000
330385
1002
}
1002
{
1070
     2
1000
-2002000
1002
}
1002
{
1070
     3
1000
100712
1002
}
  0
LINE
  5
BB
  8
0
 10
-201.31659890845609
 20
-337.88656473773159
 30
0.0
 11
-193.1939404634129
 21
-333.75272323525309
 31
0.0
1001
REVIT
1002
{
1070
     1
1000
330386
1002
}
1002
{
1070
     2
1000
-2002000
1002
}
1002
{
1070
     3
1000
100712
1002
}
  0
LINE
  5
BC
  8
0
 10
-193.1939404634129
 20
-333.75272323525309
 30
0.0
 11
-193.1939404634129
 21
-136.2139672715235
 31
0.0
1001
REVIT
1002
{
1070
     1
1000
330387
1002
}
1002
{
1070
     2
1000
-2002000
1002
}
1002
{
1070
     3
1000
100712
1002
}
  0
LINE
  5
BD
  8
0
 10
-193.1939404634129
 20
-136.2139672715235
 30
0.0
 11
-201.31659890845609
 21
-140.347808774002
 31
0.0
1001
REVIT
1002
{
1070
     1
1000
330388
1002
}
1002
{
1070
     2
1000
-2002000
1002
}
1002
{
1070
     3
1000
100712
1002
}
  0
LINE
  5
BE
  8
0
 10
-162.4531689008634
 20
-329.60027500423269
 30
0.0
 11
-191.6175391945834
 21
-300.81705231468987
 31
0.0
1001
REVIT
1002
{
1070
     1
1000
330389
1002
}
1002
{
1070
     2
1000
-2002000
1002
}
1002
{
1070
     3
1000
-2009514
1002
}
  0
LINE
  5
BF
  8
0
 10
-191.6175391945834
 20
-300.81705231468987
 30
0.0
 11
-162.4531689008634
 21
-285.9745121377847
 31
0.0
1001
REVIT
1002
{
1070
     1
1000
330390
1002
}
1002
{
1070
     2
1000
-2002000
1002
}
1002
{
1070
     3
1000
-2009514
1002
}
  0
LINE
  5
C0
  8
0
 10
-162.4531689008634
 20
-285.97451213778481
 30
0.0
 11
-151.0042469693675
 21
-280.14784480229719
 31
0.0
1001
REVIT
1002
{
1070
     1
1000
330391
1002
}
1002
{
1070
     2
1000
-2002000
1002
}
1002
{
1070
     3
1000
100712
1002
}
  0
LINE
  5
C1
  8
0
 10
-151.0042469693675
 20
-280.14784480229719
 30
0.0
 11
-110.1741285581595
 21
-320.44435656765722
 31
0.0
1001
REVIT
1002
{
1070
     1
1000
330392
1002
}
1002
{
1070
     2
1000
-2002000
1002
}
1002
{
1070
     3
1000
100712
1002
}
  0
LINE
  5
C2
  8
0
 10
-110.1741285581595
 20
-320.44435656765722
 30
0.0
 11
-150.78742078337541
 21
-341.11356408004991
 31
0.0
1001
REVIT
1002
{
1070
     1
1000
330393
1002
}
1002
{
1070
     2
1000
-2002000
1002
}
1002
{
1070
     3
1000
100712
1002
}
  0
LINE
  5
C3
  8
0
 10
-162.4531689008634
 20
-329.60027500423269
 30
0.0
 11
-191.61753919458349
 21
-300.81705231468987
 31
0.0
1001
REVIT
1002
{
1070
     1
1000
330394
1002
}
1002
{
1070
     2
1000
-2002000
1002
}
1002
{
1070
     3
1000
-2009514
1002
}
  0
LINE
  5
C4
  8
0
 10
-191.61753919458349
 20
-300.81705231468987
 30
0.0
 11
-191.61753919458349
 21
-132.79414807714201
 31
0.0
1001
REVIT
1002
{
1070
     1
1000
330395
1002
}
1002
{
1070
     2
1000
-2002000
1002
}
1002
{
1070
     3
1000
-2009514
1002
}
  0
LINE
  5
C5
  8
0
 10
-191.61753919458349
 20
-132.79414807714201
 30
0.0
 11
-191.61753919458349
 21
-89.168385210693955
 31
0.0
1001
REVIT
1002
{
1070
     1
1000
330396
1002
}
1002
{
1070
     2
1000
-2002000
1002
}
1002
{
1070
     3
1000
100712
1002
}
  0
LINE
  5
C6
  8
0
 10
-191.61753919458349
 20
-89.168385210693955
 30
0.0
 11
-162.4531689008634
 21
-117.95160790023679
 31
0.0
1001
REVIT
1002
{
1070
     1
1000
330397
1002
}
1002
{
1070
     2
1000
-2002000
1002
}
1002
{
1070
     3
1000
100712
1002
}
  0
LINE
  5
C7
  8
0
 10
-162.4531689008634
 20
-117.95160790023679
 30
0.0
 11
-162.4531689008634
 21
-329.60027500423269
 31
0.0
1001
REVIT
1002
{
1070
     1
1000
330398
1002
}
1002
{
1070
     2
1000
-2002000
1002
}
1002
{
1070
     3
1000
100712
1002
}
  0
LINE
  5
C8
  8
0
 10
-162.45316890086329
 20
-329.60027500423269
 30
0.0
 11
-193.63380834781239
 21
-345.46894931716969
 31
0.0
1001
REVIT
1002
{
1070
     1
1000
330399
1002
}
1002
{
1070
     2
1000
-2002000
1002
}
1002
{
1070
     3
1000
100712
1002
}
  0
LINE
  5
C9
  8
0
 10
-193.63380834781239
 20
-345.46894931716969
 30
0.0
 11
-162.4531689008634
 21
-329.60027500423269
 31
0.0
1001
REVIT
1002
{
1070
     1
1000
330400
1002
}
1002
{
1070
     2
1000
-2002000
1002
}
1002
{
1070
     3
1000
100712
1002
}
  0
LINE
  5
CA
  8
0
 10
-150.78742078337541
 20
-341.11356408004991
 30
0.0
 11
-191.40071300859131
 21
-361.7827715924426
 31
0.0
1001
REVIT
1002
{
1070
     1
1000
330401
1002
}
1002
{
1070
     2
1000
-2002000
1002
}
1002
{
1070
     3
1000
100712
1002
}
  0
LINE
  5
CB
  8
0
 10
-191.40071300859131
 20
-361.7827715924426
 30
0.0
 11
-203.06646112607939
 21
-350.26948251662532
 31
0.0
1001
REVIT
1002
{
1070
     1
1000
330402
1002
}
1002
{
1070
     2
1000
-2002000
1002
}
1002
{
1070
     3
1000
100712
1002
}
  0
LINE
  5
CC
  8
0
 10
-203.06646112607939
 20
-350.26948251662537
 30
0.0
 11
-193.63380834781239
 21
-345.46894931716969
 31
0.0
1001
REVIT
1002
{
1070
     1
1000
330403
1002
}
1002
{
1070
     2
1000
-2002000
1002
}
1002
{
1070
     3
1000
-2009514
1002
}
  0
LINE
  5
CD
  8
0
 10
203.06646112607939
 20
-143.57740739269849
 30
0.0
 11
214.73220924356741
 21
-155.09069646851569
 31
0.0
1001
REVIT
1002
{
1070
     1
1000
330404
1002
}
1002
{
1070
     2
1000
-2002000
1002
}
1002
{
1070
     3
1000
100712
1002
}
  0
LINE
  5
CE
  8
0
 10
214.73220924356741
 20
-155.09069646851569
 30
0.0
 11
133.50562479313569
 21
-196.42911149330101
 31
0.0
1001
REVIT
1002
{
1070
     1
1000
330405
1002
}
1002
{
1070
     2
1000
-2002000
1002
}
1002
{
1070
     3
1000
100712
1002
}
  0
LINE
  5
CF
  8
0
 10
133.50562479313561
 20
-196.42911149330101
 30
0.0
 11
121.8398766756476
 21
-184.91582241748389
 31
0.0
1001
REVIT
1002
{
1070
     1
1000
330406
1002
}
1002
{
1070
     2
1000
-2002000
1002
}
1002
{
1070
     3
1000
100712
1002
}
  0
LINE
  5
D0
  8
0
 10
203.1243503640774
 20
-143.5479459871498
 30
0.0
 11
162.45316890086349
 21
-164.24661490509121
 31
0.0
1001
REVIT
1002
{
1070
     1
1000
330407
1002
}
1002
{
1070
     2
1000
-2002000
1002
}
1002
{
1070
     3
1000
100712
1002
}
  0
LINE
  5
D1
  8
0
 10
162.45316890086349
 20
-164.24661490509121
 30
0.0
 11
162.45316890086349
 21
47.402052198904677
 31
0.0
1001
REVIT
1002
{
1070
     1
1000
330408
1002
}
1002
{
1070
     2
1000
-2002000
1002
}
1002
{
1070
     3
1000
100712
1002
}
  0
LINE
  5
D2
  8
0
 10
162.45316890086349
 20
47.402052198904691
 30
0.0
 11
203.0664611260795
 21
68.071259711297387
 31
0.0
1001
REVIT
1002
{
1070
     1
1000
330409
1002
}
1002
{
1070
     2
1000
-2002000
1002
}
1002
{
1070
     3
1000
100712
1002
}
  0
LINE
  5
D3
  8
0
 10
121.8398766756476
 20
-184.91582241748389
 30
0.0
 11
110.3909547441518
 21
-173.6165258377668
 31
0.0
1001
REVIT
1002
{
1070
     1
1000
330410
1002
}
1002
{
1070
     2
1000
-2002000
1002
}
1002
{
1070
     3
1000
100712
1002
}
  0
LINE
  5
D4
  8
0
 10
110.3909547441518
 20
-173.6165258377668
 30
0.0
 11
92.675506381927605
 21
-156.132599727941
 31
0.0
1001
REVIT
1002
{
1070
     1
1000
330411
1002
}
1002
{
1070
     2
1000
-2002000
1002
}
1002
{
1070
     3
1000
100712
1002
}
  0
LINE
  5
D5
  8
0
 10
92.675506381927605
 20
-156.132599727941
 30
0.0
 11
110.3909547441518
 21
-147.1167268865232
 31
0.0
1001
REVIT
1002
{
1070
     1
1000
330412
1002
}
1002
{
1070
     2
1000
-2002000
1002
}
1002
{
1070
     3
1000
100712
1002
}
  0
LINE
  5
D6
  8
0
 10
110.3909547441518
 20
-147.1167268865232
 30
0.0
 11
133.28879860714349
 21
-135.46339221554831
 31
0.0
1001
REVIT
1002
{
1070
     1
1000
330413
1002
}
1002
{
1070
     2
1000
-2002000
1002
}
1002
{
1070
     3
1000
100712
1002
}
  0
LINE
  5
D7
  8
0
 10
133.28879860714349
 20
-135.46339221554831
 30
0.0
 11
162.45316890086349
 21
-164.24661490509129
 31
0.0
1001
REVIT
1002
{
1070
     1
1000
330414
1002
}
1002
{
1070
     2
1000
-2002000
1002
}
1002
{
1070
     3
1000
100712
1002
}
  0
LINE
  5
D8
  8
0
 10
162.45316890086349
 20
-164.24661490509129
 30
0.0
 11
133.28879860714349
 21
-135.46339221554831
 31
0.0
1001
REVIT
1002
{
1070
     1
1000
330415
1002
}
1002
{
1070
     2
1000
-2002000
1002
}
1002
{
1070
     3
1000
100712
1002
}
  0
LINE
  5
D9
  8
0
 10
133.28879860714349
 20
-135.46339221554831
 30
0.0
 11
133.28879860714349
 21
76.185274888447537
 31
0.0
1001
REVIT
1002
{
1070
     1
1000
330416
1002
}
1002
{
1070
     2
1000
-2002000
1002
}
1002
{
1070
     3
1000
100712
1002
}
  0
LINE
  5
DA
  8
0
 10
133.28879860714349
 20
76.185274888447537
 30
0.0
 11
162.45316890086349
 21
47.402052198904741
 31
0.0
1001
REVIT
1002
{
1070
     1
1000
330417
1002
}
1002
{
1070
     2
1000
-2002000
1002
}
1002
{
1070
     3
1000
100712
1002
}
  0
LINE
  5
DB
  8
0
 10
35.81689726662534
 20
111.2386437003035
 30
0.0
 11
133.28879860714341
 21
160.844741730046
 31
0.0
1001
REVIT
1002
{
1070
     1
1000
330418
1002
}
1002
{
1070
     2
1000
-2002000
1002
}
1002
{
1070
     3
1000
100712
1002
}
  0
LINE
  5
DC
  8
0
 10
133.28879860714329
 20
160.844741730046
 30
0.0
 11
138.87153695519621
 21
155.3349638925298
 31
0.0
1001
REVIT
1002
{
1070
     1
1000
330419
1002
}
1002
{
1070
     2
1000
-2002000
1002
}
1002
{
1070
     3
1000
100712
1002
}
  0
LINE
  5
DD
  8
0
 10
138.87153695519621
 20
155.3349638925298
 30
0.0
 11
133.28879860714341
 21
160.844741730046
 31
0.0
1001
REVIT
1002
{
1070
     1
1000
330420
1002
}
1002
{
1070
     2
1000
-2002000
1002
}
1002
{
1070
     3
1000
100712
1002
}
  0
LINE
  5
DE
  8
0
 10
133.28879860714341
 20
160.844741730046
 30
0.0
 11
133.28879860714341
 21
125.56996387938
 31
0.0
1001
REVIT
1002
{
1070
     1
1000
330421
1002
}
1002
{
1070
     2
1000
-2002000
1002
}
1002
{
1070
     3
1000
-2009514
1002
}
  0
LINE
  5
DF
  8
0
 10
133.28879860714341
 20
125.56996387938
 30
0.0
 11
138.87153695519621
 21
120.0601860418638
 31
0.0
1001
REVIT
1002
{
1070
     1
1000
330422
1002
}
1002
{
1070
     2
1000
-2002000
1002
}
1002
{
1070
     3
1000
-2009514
1002
}
  0
LINE
  5
E0
  8
0
 10
138.87153695519621
 20
120.0601860418638
 30
0.0
 11
162.4531689008634
 21
96.786741189837173
 31
0.0
1001
REVIT
1002
{
1070
     1
1000
330423
1002
}
1002
{
1070
     2
1000
-2002000
1002
}
1002
{
1070
     3
1000
100712
1002
}
  0
LINE
  5
E1
  8
0
 10
162.4531689008634
 20
132.06151904050321
 30
0.0
 11
162.4531689008634
 21
167.3362968911691
 31
0.0
1001
REVIT
1002
{
1070
     1
1000
330424
1002
}
1002
{
1070
     2
1000
-2002000
1002
}
1002
{
1070
     3
1000
100712
1002
}
  0
LINE
  5
E2
  8
0
 10
162.4531689008634
 20
167.3362968911691
 30
0.0
 11
203.0664611260793
 21
188.00550440356179
 31
0.0
1001
REVIT
1002
{
1070
     1
1000
330425
1002
}
1002
{
1070
     2
1000
-2002000
1002
}
1002
{
1070
     3
1000
100712
1002
}
  0
LINE
  5
E3
  8
0
 10
203.0664611260793
 20
188.00550440356179
 30
0.0
 11
203.0664611260793
 21
117.4559487022298
 31
0.0
1001
REVIT
1002
{
1070
     1
1000
330426
1002
}
1002
{
1070
     2
1000
-2002000
1002
}
1002
{
1070
     3
1000
100712
1002
}
  0
LINE
  5
E4
  8
0
 10
203.0664611260793
 20
117.4559487022298
 30
0.0
 11
191.61753919458349
 21
111.6292813667424
 31
0.0
1001
REVIT
1002
{
1070
     1
1000
330427
1002
}
1002
{
1070
     2
1000
-2002000
1002
}
1002
{
1070
     3
1000
100712
1002
}
  0
LINE
  5
E5
  8
0
 10
191.61753919458349
 20
111.6292813667424
 30
0.0
 11
186.0348008465306
 21
108.7880741884765
 31
0.0
1001
REVIT
1002
{
1070
     1
1000
330428
1002
}
1002
{
1070
     2
1000
-2002000
1002
}
1002
{
1070
     3
1000
-2009514
1002
}
  0
LINE
  5
E6
  8
0
 10
186.0348008465306
 20
108.7880741884765
 30
0.0
 11
162.4531689008634
 21
96.786741189837159
 31
0.0
1001
REVIT
1002
{
1070
     1
1000
330429
1002
}
1002
{
1070
     2
1000
-2002000
1002
}
1002
{
1070
     3
1000
100712
1002
}
  0
LINE
  5
E7
  8
0
 10
162.4531689008634
 20
132.06151904050321
 30
0.0
 11
64.981267560345373
 21
82.455421010760716
 31
0.0
1001
REVIT
1002
{
1070
     1
1000
330430
1002
}
1002
{
1070
     2
1000
-2002000
1002
}
1002
{
1070
     3
1000
100712
1002
}
  0
LINE
  5
E8
  8
0
 10
64.981267560345387
 20
82.455421010760716
 30
0.0
 11
35.81689726662534
 21
111.2386437003035
 31
0.0
1001
REVIT
1002
{
1070
     1
1000
330431
1002
}
1002
{
1070
     2
1000
-2002000
1002
}
1002
{
1070
     3
1000
100712
1002
}
  0
LINE
  5
E9
  8
0
 10
191.61753919458349
 20
103.2782963509603
 30
0.0
 11
162.4531689008634
 21
132.06151904050321
 31
0.0
1001
REVIT
1002
{
1070
     1
1000
330432
1002
}
1002
{
1070
     2
1000
-2002000
1002
}
1002
{
1070
     3
1000
100712
1002
}
  0
LINE
  5
EA
  8
0
 10
162.4531689008634
 20
132.06151904050321
 30
0.0
 11
162.4531689008634
 21
167.3362968911691
 31
0.0
1001
REVIT
1002
{
1070
     1
1000
330433
1002
}
1002
{
1070
     2
1000
-2002000
1002
}
1002
{
1070
     3
1000
100712
1002
}
  0
LINE
  5
EB
  8
0
 10
162.4531689008634
 20
167.3362968911691
 30
0.0
 11
162.4531689008634
 21
132.06151904050321
 31
0.0
1001
REVIT
1002
{
1070
     1
1000
330434
1002
}
1002
{
1070
     2
1000
-2002000
1002
}
1002
{
1070
     3
1000
100712
1002
}
  0
LINE
  5
EC
  8
0
 10
162.4531689008634
 20
132.0615190405031
 30
0.0
 11
64.981267560345373
 21
82.455421010760745
 31
0.0
1001
REVIT
1002
{
1070
     1
1000
330435
1002
}
1002
{
1070
     2
1000
-2002000
1002
}
1002
{
1070
     3
1000
100712
1002
}
  0
LINE
  5
ED
  8
0
 10
64.981267560345344
 20
82.455421010760716
 30
0.0
 11
64.981267560345344
 21
117.7301988614267
 31
0.0
1001
REVIT
1002
{
1070
     1
1000
330436
1002
}
1002
{
1070
     2
1000
-2002000
1002
}
1002
{
1070
     3
1000
100712
1002
}
  0
LINE
  5
EE
  8
0
 10
64.981267560345344
 20
117.7301988614267
 30
0.0
 11
162.4531689008634
 21
167.3362968911691
 31
0.0
1001
REVIT
1002
{
1070
     1
1000
330437
1002
}
1002
{
1070
     2
1000
-2002000
1002
}
1002
{
1070
     3
1000
100712
1002
}
  0
LINE
  5
EF
  8
0
 10
162.4531689008634
 20
167.3362968911691
 30
0.0
 11
191.61753919458349
 21
138.55307420162629
 31
0.0
1001
REVIT
1002
{
1070
     1
1000
330438
1002
}
1002
{
1070
     2
1000
-2002000
1002
}
1002
{
1070
     3
1000
100712
1002
}
  0
LINE
  5
F0
  8
0
 10
191.61753919458349
 20
138.55307420162629
 30
0.0
 11
191.61753919458349
 21
103.2782963509603
 31
0.0
1001
REVIT
1002
{
1070
     1
1000
330439
1002
}
1002
{
1070
     2
1000
-2002000
1002
}
1002
{
1070
     3
1000
100712
1002
}
  0
LINE
  5
F1
  8
0
 10
-138.87153695519621
 20
-21.290808059999002
 30
0.0
 11
-162.45316890086349
 21
-33.292141058638343
 31
0.0
1001
REVIT
1002
{
1070
     1
1000
330440
1002
}
1002
{
1070
     2
1000
-2002000
1002
}
1002
{
1070
     3
1000
-2009514
1002
}
  0
LINE
  5
F2
  8
0
 10
-162.45316890086349
 20
-33.292141058638343
 30
0.0
 11
-162.45316890086349
 21
1.982636792027594
 31
0.0
1001
REVIT
1002
{
1070
     1
1000
330441
1002
}
1002
{
1070
     2
1000
-2002000
1002
}
1002
{
1070
     3
1000
100712
1002
}
  0
LINE
  5
F3
  8
0
 10
-162.4531689008634
 20
1.982636792027612
 30
0.0
 11
-133.28879860714349
 21
-26.80058589751518
 31
0.0
1001
REVIT
1002
{
1070
     1
1000
330442
1002
}
1002
{
1070
     2
1000
-2002000
1002
}
1002
{
1070
     3
1000
100712
1002
}
  0
LINE
  5
F4
  8
0
 10
-133.28879860714349
 20
-26.800585897515148
 30
0.0
 11
-133.28879860714349
 21
-62.075363748181189
 31
0.0
1001
REVIT
1002
{
1070
     1
1000
330443
1002
}
1002
{
1070
     2
1000
-2002000
1002
}
1002
{
1070
     3
1000
100712
1002
}
  0
LINE
  5
F5
  8
0
 10
-133.28879860714349
 20
-62.075363748181189
 30
0.0
 11
-162.4531689008636
 21
-33.292141058638329
 31
0.0
1001
REVIT
1002
{
1070
     1
1000
330444
1002
}
1002
{
1070
     2
1000
-2002000
1002
}
1002
{
1070
     3
1000
100712
1002
}
  0
LINE
  5
F6
  8
0
 10
-162.4531689008636
 20
-33.292141058638343
 30
0.0
 11
-186.0348008465308
 21
-10.018696206611651
 31
0.0
1001
REVIT
1002
{
1070
     1
1000
330445
1002
}
1002
{
1070
     2
1000
-2002000
1002
}
1002
{
1070
     3
1000
-2009514
1002
}
  0
LINE
  5
F7
  8
0
 10
-186.0348008465308
 20
-10.01869620661166
 30
0.0
 11
-162.45316890086349
 21
-33.292141058638322
 31
0.0
1001
REVIT
1002
{
1070
     1
1000
330446
1002
}
1002
{
1070
     2
1000
-2002000
1002
}
1002
{
1070
     3
1000
-2009514
1002
}
  0
LINE
  5
F8
  8
0
 10
-162.45316890086349
 20
-33.292141058638322
 30
0.0
 11
-138.87153695519629
 21
-21.290808059999009
 31
0.0
1001
REVIT
1002
{
1070
     1
1000
330447
1002
}
1002
{
1070
     2
1000
-2002000
1002
}
1002
{
1070
     3
1000
-2009514
1002
}
  0
LINE
  5
F9
  8
0
 10
-203.06646112607939
 20
-89.236126421696994
 30
0.0
 11
-203.06646112607939
 21
-18.686570720365001
 31
0.0
1001
REVIT
1002
{
1070
     1
1000
330448
1002
}
1002
{
1070
     2
1000
-2002000
1002
}
1002
{
1070
     3
1000
100712
1002
}
  0
LINE
  5
FA
  8
0
 10
-203.06646112607939
 20
-18.686570720365001
 30
0.0
 11
-162.45316890086349
 21
1.9826367920277039
 31
0.0
1001
REVIT
1002
{
1070
     1
1000
330449
1002
}
1002
{
1070
     2
1000
-2002000
1002
}
1002
{
1070
     3
1000
100712
1002
}
  0
LINE
  5
FB
  8
0
 10
-162.45316890086349
 20
1.9826367920276109
 30
0.0
 11
-162.45316890086349
 21
-33.292141058638322
 31
0.0
1001
REVIT
1002
{
1070
     1
1000
330450
1002
}
1002
{
1070
     2
1000
-2002000
1002
}
1002
{
1070
     3
1000
100712
1002
}
  0
LINE
  5
FC
  8
0
 10
-162.45316890086349
 20
-68.566918909304334
 30
0.0
 11
-203.06646112607939
 21
-89.236126421696994
 31
0.0
1001
REVIT
1002
{
1070
     1
1000
330451
1002
}
1002
{
1070
     2
1000
-2002000
1002
}
1002
{
1070
     3
1000
100712
1002
}
  0
LINE
  5
FD
  8
0
 10
-63.227690852817148
 20
-306.02552699395801
 30
0.0
 11
-110.3909547441517
 21
-330.02819299123661
 31
0.0
1001
REVIT
1002
{
1070
     1
1000
330452
1002
}
1002
{
1070
     2
1000
-2002000
1002
}
1002
{
1070
     3
1000
100712
1002
}
  0
LINE
  5
FE
  8
0
 10
-110.3909547441517
 20
-330.02819299123661
 30
0.0
 11
-81.226584450431673
 21
-358.81141568077931
 31
0.0
1001
REVIT
1002
{
1070
     1
1000
330453
1002
}
1002
{
1070
     2
1000
-2002000
1002
}
1002
{
1070
     3
1000
100712
1002
}
  0
LINE
  5
FF
  8
0
 10
-81.226584450431673
 20
-358.81141568077931
 30
0.0
 11
-121.8398766756475
 21
-379.48062319317199
 31
0.0
1001
REVIT
1002
{
1070
     1
1000
330454
1002
}
1002
{
1070
     2
1000
-2002000
1002
}
1002
{
1070
     3
1000
100712
1002
}
  0
LINE
  5
100
  8
0
 10
-121.8398766756475
 20
-379.48062319317199
 30
0.0
 11
-86.842632323183494
 21
-414.02049042062339
 31
0.0
1001
REVIT
1002
{
1070
     1
1000
330455
1002
}
1002
{
1070
     2
1000
-2002000
1002
}
1002
{
1070
     3
1000
100712
1002
}
  0
LINE
  5
101
  8
0
 10
-86.842632323183494
 20
-414.02049042062339
 30
0.0
 11
156.83712102811171
 21
-290.00524534626737
 31
0.0
1001
REVIT
1002
{
1070
     1
1000
330456
1002
}
1002
{
1070
     2
1000
-2002000
1002
}
1002
{
1070
     3
1000
100712
1002
}
  0
LINE
  5
102
  8
0
 10
156.8371210281118
 20
-290.00524534626737
 30
0.0
 11
121.8398766756476
 21
-255.46537811881589
 31
0.0
1001
REVIT
1002
{
1070
     1
1000
330457
1002
}
1002
{
1070
     2
1000
-2002000
1002
}
1002
{
1070
     3
1000
100712
1002
}
  0
LINE
  5
103
  8
0
 10
121.8398766756476
 20
-255.46537811881589
 30
0.0
 11
81.226584450431815
 21
-276.13458563120861
 31
0.0
1001
REVIT
1002
{
1070
     1
1000
330458
1002
}
1002
{
1070
     2
1000
-2002000
1002
}
1002
{
1070
     3
1000
100712
1002
}
  0
LINE
  5
104
  8
0
 10
81.226584450431815
 20
-276.13458563120861
 30
0.0
 11
63.227690852817339
 21
-258.37091861669808
 31
0.0
1001
REVIT
1002
{
1070
     1
1000
330459
1002
}
1002
{
1070
     2
1000
-2002000
1002
}
1002
{
1070
     3
1000
100712
1002
}
  0
LINE
  5
105
  8
0
 10
63.227690852817361
 20
-258.37091861669808
 30
0.0
 11
52.062214156711832
 21
-247.3513629416658
 31
0.0
1001
REVIT
1002
{
1070
     1
1000
330460
1002
}
1002
{
1070
     2
1000
-2002000
1002
}
1002
{
1070
     3
1000
100712
1002
}
  0
LINE
  5
106
  8
0
 10
52.062214156711832
 20
-247.3513629416658
 30
0.0
 11
-63.227690852817162
 21
-306.02552699395801
 31
0.0
1001
REVIT
1002
{
1070
     1
1000
330461
1002
}
1002
{
1070
     2
1000
-2002000
1002
}
1002
{
1070
     3
1000
100712
1002
}
  0
LINE
  5
107
  8
0
 10
156.8371210281118
 20
-290.00524534626737
 30
0.0
 11
156.8371210281118
 21
-314.69758984173347
 31
0.0
1001
REVIT
1002
{
1070
     1
1000
330462
1002
}
1002
{
1070
     2
1000
-2002000
1002
}
1002
{
1070
     3
1000
100712
1002
}
  0
LINE
  5
108
  8
0
 10
156.8371210281118
 20
-314.69758984173347
 30
0.0
 11
-86.842632323183537
 21
-438.71283491608961
 31
0.0
1001
REVIT
1002
{
1070
     1
1000
330463
1002
}
1002
{
1070
     2
1000
-2002000
1002
}
1002
{
1070
     3
1000
100712
1002
}
  0
LINE
  5
109
  8
0
 10
-86.842632323183523
 20
-438.71283491608961
 30
0.0
 11
156.83712102811171
 21
-314.69758984173347
 31
0.0
1001
REVIT
1002
{
1070
     1
1000
330464
1002
}
1002
{
1070
     2
1000
-2002000
1002
}
1002
{
1070
     3
1000
100712
1002
}
  0
LINE
  5
10A
  8
0
 10
156.8371210281118
 20
-314.69758984173347
 30
0.0
 11
158.5869832457349
 21
-318.54106987414599
 31
0.0
1001
REVIT
1002
{
1070
     1
1000
330465
1002
}
1002
{
1070
     2
1000
-2002000
1002
}
1002
{
1070
     3
1000
100712
1002
}
  0
LINE
  5
10B
  8
0
 10
158.5869832457349
 20
-318.54106987414599
 30
0.0
 11
-85.092770105560376
 21
-442.55631494850218
 31
0.0
1001
REVIT
1002
{
1070
     1
1000
330466
1002
}
1002
{
1070
     2
1000
-2002000
1002
}
1002
{
1070
     3
1000
100712
1002
}
  0
LINE
  5
10C
  8
0
 10
-85.092770105560362
 20
-442.55631494850218
 30
0.0
 11
-86.842632323183523
 21
-438.71283491608961
 31
0.0
1001
REVIT
1002
{
1070
     1
1000
330467
1002
}
1002
{
1070
     2
1000
-2002000
1002
}
1002
{
1070
     3
1000
100712
1002
}
  0
LINE
  5
10D
  8
0
 10
-86.842632323183523
 20
-438.71283491608961
 30
0.0
 11
-86.842632323183523
 21
-414.02049042062339
 31
0.0
1001
REVIT
1002
{
1070
     1
1000
330468
1002
}
1002
{
1070
     2
1000
-2002000
1002
}
1002
{
1070
     3
1000
100712
1002
}
  0
LINE
  5
10E
  8
0
 10
52.062214156711732
 20
34.846859863662182
 30
0.0
 11
52.062214156711732
 21
-176.80180724033369
 31
0.0
1001
REVIT
1002
{
1070
     1
1000
330469
1002
}
1002
{
1070
     2
1000
-2002000
1002
}
1002
{
1070
     3
1000
-2009514
1002
}
  0
LINE
  5
10F
  8
0
 10
52.062214156711732
 20
-176.80180724033369
 30
0.0
 11
110.3909547441518
 21
-234.36825261941951
 31
0.0
1001
REVIT
1002
{
1070
     1
1000
330470
1002
}
1002
{
1070
     2
1000
-2002000
1002
}
1002
{
1070
     3
1000
-2009514
1002
}
  0
LINE
  5
110
  8
0
 10
-110.3909547441517
 20
-259.4786372899045
 30
0.0
 11
52.062214156711804
 21
-176.80180724033369
 31
0.0
1001
REVIT
1002
{
1070
     1
1000
330471
1002
}
1002
{
1070
     2
1000
-2002000
1002
}
1002
{
1070
     3
1000
-2009514
1002
}
  0
LINE
  5
111
  8
0
 10
162.4531689008634
 20
132.06151904050321
 30
0.0
 11
138.87153695519621
 21
155.3349638925298
 31
0.0
1001
REVIT
1002
{
1070
     1
1000
330472
1002
}
1002
{
1070
     2
1000
-2002000
1002
}
1002
{
1070
     3
1000
-2009514
1002
}
  0
LINE
  5
112
  8
0
 10
138.87153695519621
 20
155.3349638925298
 30
0.0
 11
162.4531689008634
 21
132.06151904050321
 31
0.0
1001
REVIT
1002
{
1070
     1
1000
330473
1002
}
1002
{
1070
     2
1000
-2002000
1002
}
1002
{
1070
     3
1000
-2009514
1002
}
  0
LINE
  5
113
  8
0
 10
-162.45316890086369
 20
-117.95160790023689
 30
0.0
 11
-81.226584450431545
 21
-76.613192875451361
 31
0.0
1001
REVIT
1002
{
1070
     1
1000
330336
1002
}
1002
{
1070
     2
1000
-2002000
1002
}
1002
{
1070
     3
1000
301251
1002
}
  0
LINE
  5
114
  8
0
 10
-151.00424696936761
 20
-350.6974005036293
 30
0.0
 11
-121.8398766756475
 21
-379.48062319317211
 31
0.0
1001
REVIT
1002
{
1070
     1
1000
330474
1002
}
1002
{
1070
     2
1000
-2002000
1002
}
1002
{
1070
     3
1000
-2009514
1002
}
  0
LINE
  5
115
  8
0
 10
-110.3909547441517
 20
-330.02819299123661
 30
0.0
 11
-151.00424696936761
 21
-350.6974005036293
 31
0.0
1001
REVIT
1002
{
1070
     1
1000
330475
1002
}
1002
{
1070
     2
1000
-2002000
1002
}
1002
{
1070
     3
1000
-2009514
1002
}
  0
LINE
  5
116
  8
0
 10
-110.3909547441517
 20
-330.02819299123661
 30
0.0
 11
-121.8398766756475
 21
-379.48062319317211
 31
0.0
1001
REVIT
1002
{
1070
     1
1000
330476
1002
}
1002
{
1070
     2
1000
-2002000
1002
}
1002
{
1070
     3
1000
-2009514
1002
}
  0
LINE
  5
117
  8
0
 10
-81.226584450431673
 20
-358.81141568077931
 30
0.0
 11
-151.00424696936761
 21
-350.6974005036293
 31
0.0
1001
REVIT
1002
{
1070
     1
1000
330477
1002
}
1002
{
1070
     2
1000
-2002000
1002
}
1002
{
1070
     3
1000
-2009514
1002
}
  0
LINE
  5
118
  8
0
 10
92.675506381927676
 20
-226.68215542927319
 30
0.0
 11
52.062214156711718
 21
-247.351362941666
 31
0.0
1001
REVIT
1002
{
1070
     1
1000
330478
1002
}
1002
{
1070
     2
1000
-2002000
1002
}
1002
{
1070
     3
1000
-2009514
1002
}
  0
LINE
  5
119
  8
0
 10
92.675506381927676
 20
-226.68215542927319
 30
0.0
 11
81.226584450431758
 21
-276.1345856312094
 31
0.0
1001
REVIT
1002
{
1070
     1
1000
330479
1002
}
1002
{
1070
     2
1000
-2002000
1002
}
1002
{
1070
     3
1000
-2009514
1002
}
  0
LINE
  5
11A
  8
0
 10
121.8398766756476
 20
-255.46537811881601
 30
0.0
 11
52.062214156711761
 21
-247.351362941666
 31
0.0
1001
REVIT
1002
{
1070
     1
1000
330480
1002
}
1002
{
1070
     2
1000
-2002000
1002
}
1002
{
1070
     3
1000
-2009514
1002
}
  0
LINE
  5
11B
  8
0
 10
92.675506381927605
 20
-226.68215542927331
 30
0.0
 11
121.8398766756476
 21
-255.46537811881601
 31
0.0
1001
REVIT
1002
{
1070
     1
1000
330481
1002
}
1002
{
1070
     2
1000
-2002000
1002
}
1002
{
1070
     3
1000
-2009514
1002
}
  0
CIRCLE
  5
11C
  8
0
 10
-162.4531689008636
 20
-33.292141058638329
 30
0.0
 40
3.0310142424169442
1001
REVIT
1002
{
1070
     1
1000
330482
1002
}
1002
{
1070
     2
1000
-2002000
1002
}
1002
{
1070
     3
1000
301251
1002
}
  0
CIRCLE
  5
11D
  8
0
 10
-162.4531689008638
 20
-117.95160790023679
 30
0.0
 40
3.0310142424169442
1001
REVIT
1002
{
1070
     1
1000
330483
1002
}
1002
{
1070
     2
1000
-2002000
1002
}
1002
{
1070
     3
1000
301251
1002
}
  0
CIRCLE
  5
11E
  8
0
 10
-81.226584450431588
 20
-76.613192875451276
 30
0.0
 40
3.0310142424169579
1001
REVIT
1002
{
1070
     1
1000
330484
1002
}
1002
{
1070
     2
1000
-2002000
1002
}
1002
{
1070
     3
1000
301251
1002
}
  0
LINE
  5
11F
  8
0
 10
-162.45316890086389
 20
-329.6002750042328
 30
0.0
 11
-81.226584450431545
 21
-288.26185997944719
 31
0.0
1001
REVIT
1002
{
1070
     1
1000
330485
1002
}
1002
{
1070
     2
1000
-2002000
1002
}
1002
{
1070
     3
1000
301251
1002
}
  0
CIRCLE
  5
120
  8
0
 10
-162.45316890086411
 20
-329.6002750042328
 30
0.0
 40
3.0310142424169442
1001
REVIT
1002
{
1070
     1
1000
330486
1002
}
1002
{
1070
     2
1000
-2002000
1002
}
1002
{
1070
     3
1000
301251
1002
}
  0
CIRCLE
  5
121
  8
0
 10
-81.226584450431915
 20
-288.26185997944731
 30
0.0
 40
3.0310142424169442
1001
REVIT
1002
{
1070
     1
1000
330487
1002
}
1002
{
1070
     2
1000
-2002000
1002
}
1002
{
1070
     3
1000
301251
1002
}
  0
LINE
  5
122
  8
0
 10
-162.4531689008636
 20
-33.292141058638329
 30
0.0
 11
-162.4531689008638
 21
-117.95160790023689
 31
0.0
1001
REVIT
1002
{
1070
     1
1000
330488
1002
}
1002
{
1070
     2
1000
-2002000
1002
}
1002
{
1070
     3
1000
301251
1002
}
  0
LINE
  5
123
  8
0
 10
-81.226584450431673
 20
-358.81141568077931
 30
0.0
 11
-81.226584450431545
 21
-288.26185997944719
 31
0.0
1001
REVIT
1002
{
1070
     1
1000
330489
1002
}
1002
{
1070
     2
1000
-2002000
1002
}
1002
{
1070
     3
1000
301251
1002
}
  0
CIRCLE
  5
124
  8
0
 10
-81.226584450432057
 20
-358.81141568077931
 30
0.0
 40
3.0310142424169579
1001
REVIT
1002
{
1070
     1
1000
330490
1002
}
1002
{
1070
     2
1000
-2002000
1002
}
1002
{
1070
     3
1000
301251
1002
}
  0
CIRCLE
  5
125
  8
0
 10
162.45316890086389
 20
132.06151904050219
 30
0.0
 40
3.0310142424169442
1001
REVIT
1002
{
1070
     1
1000
330491
1002
}
1002
{
1070
     2
1000
-2002000
1002
}
1002
{
1070
     3
1000
301251
1002
}
  0
CIRCLE
  5
126
  8
0
 10
162.4531689008638
 20
47.402052198904677
 30
0.0
 40
3.0310142424169442
1001
REVIT
1002
{
1070
     1
1000
330492
1002
}
1002
{
1070
     2
1000
-2002000
1002
}
1002
{
1070
     3
1000
301251
1002
}
  0
CIRCLE
  5
127
  8
0
 10
162.4531689008634
 20
-164.24661490509121
 30
0.0
 40
3.0310142424169721
1001
REVIT
1002
{
1070
     1
1000
330493
1002
}
1002
{
1070
     2
1000
-2002000
1002
}
1002
{
1070
     3
1000
301251
1002
}
  0
CIRCLE
  5
128
  8
0
 10
81.226584450431915
 20
-276.13458563120878
 30
0.0
 40
3.0310142424169579
1001
REVIT
1002
{
1070
     1
1000
330494
1002
}
1002
{
1070
     2
1000
-2002000
1002
}
1002
{
1070
     3
1000
301251
1002
}
  0
CIRCLE
  5
129
  8
0
 10
81.226584450432028
 20
-205.58502992987681
 30
0.0
 40
3.0310142424169442
1001
REVIT
1002
{
1070
     1
1000
330495
1002
}
1002
{
1070
     2
1000
-2002000
1002
}
1002
{
1070
     3
1000
301251
1002
}
  0
LINE
  5
12A
  8
0
 10
162.4531689008634
 20
-164.24661490509121
 30
0.0
 11
81.226584450431915
 21
-205.5850299298765
 31
0.0
1001
REVIT
1002
{
1070
     1
1000
330496
1002
}
1002
{
1070
     2
1000
-2002000
1002
}
1002
{
1070
     3
1000
301251
1002
}
  0
LINE
  5
12B
  8
0
 10
81.226584450431886
 20
-205.5850299298765
 30
0.0
 11
81.226584450431758
 21
-276.13458563120918
 31
0.0
1001
REVIT
1002
{
1070
     1
1000
330497
1002
}
1002
{
1070
     2
1000
-2002000
1002
}
1002
{
1070
     3
1000
301251
1002
}
  0
CIRCLE
  5
12C
  8
0
 10
81.226584450431815
 20
6.0636371741192541
 30
0.0
 40
3.0310142424169579
1001
REVIT
1002
{
1070
     1
1000
330498
1002
}
1002
{
1070
     2
1000
-2002000
1002
}
1002
{
1070
     3
1000
301251
1002
}
  0
LINE
  5
12D
  8
0
 10
81.226584450431815
 20
6.0636371741192541
 30
0.0
 11
165.15447581173811
 21
48.776820656135463
 31
0.0
1001
REVIT
1002
{
1070
     1
1000
330499
1002
}
1002
{
1070
     2
1000
-2002000
1002
}
1002
{
1070
     3
1000
301251
1002
}
  0
LINE
  5
12E
  8
0
 10
162.4531689008638
 20
47.402052198904677
 30
0.0
 11
162.45316890086389
 21
132.06151904050279
 31
0.0
1001
REVIT
1002
{
1070
     1
1000
330500
1002
}
1002
{
1070
     2
1000
-2002000
1002
}
1002
{
1070
     3
1000
301251
1002
}
  0
ENDSEC
  0
EOF
