  0
SECTION
  2
HEADER
  9
$ACADVER
  1
AC1009
  9
$INSBASE
 10
0.0
 20
0.0
 30
0.0
  9
$EXTMIN
 10
-367.84928603699041
 20
-268.05035713300788
 30
0.0
  9
$EXTMAX
 10
95.587043447977635
 20
548.13065449519866
 30
0.0
  9
$LIMMIN
 10
0.0
 20
0.0
  9
$LIMMAX
 10
12.0
 20
9.0
  9
$ORTHOMODE
 70
     0
  9
$REGENMODE
 70
     1
  9
$FILLMODE
 70
     1
  9
$QTEXTMODE
 70
     0
  9
$MIRRTEXT
 70
     0
  9
$DRAGMODE
 70
     2
  9
$LTSCALE
 40
1.0
  9
$OSMODE
 70
   127
  9
$ATTMODE
 70
     1
  9
$TEXTSIZE
 40
0.2
  9
$TRACEWID
 40
0.05
  9
$TEXTSTYLE
  7
STANDARD
  9
$CLAYER
  8
0
  9
$CELTYPE
  6
BYLAYER
  9
$CECOLOR
 62
   256
  9
$DIMSCALE
 40
1.0
  9
$DIMASZ
 40
0.18
  9
$DIMEXO
 40
0.0625
  9
$DIMDLI
 40
0.38
  9
$DIMRND
 40
0.0
  9
$DIMDLE
 40
0.0
  9
$DIMEXE
 40
0.18
  9
$DIMTP
 40
0.0
  9
$DIMTM
 40
0.0
  9
$DIMTXT
 40
0.18
  9
$DIMCEN
 40
0.09
  9
$DIMTSZ
 40
0.0
  9
$DIMTOL
 70
     0
  9
$DIMLIM
 70
     0
  9
$DIMTIH
 70
     1
  9
$DIMTOH
 70
     1
  9
$DIMSE1
 70
     0
  9
$DIMSE2
 70
     0
  9
$DIMTAD
 70
     0
  9
$DIMZIN
 70
     0
  9
$DIMBLK
  1

  9
$DIMASO
 70
     1
  9
$DIMSHO
 70
     1
  9
$DIMPOST
  1

  9
$DIMAPOST
  1

  9
$DIMALT
 70
     0
  9
$DIMALTD
 70
     2
  9
$DIMALTF
 40
25.399999999999999
  9
$DIMLFAC
 40
1.0
  9
$DIMTOFL
 70
     0
  9
$DIMTVP
 40
0.0
  9
$DIMTIX
 70
     0
  9
$DIMSOXD
 70
     0
  9
$DIMSAH
 70
     0
  9
$DIMBLK1
  1

  9
$DIMBLK2
  1

  9
$DIMSTYLE
  2
STANDARD
  9
$DIMCLRD
 70
     0
  9
$DIMCLRE
 70
     0
  9
$DIMCLRT
 70
     0
  9
$DIMTFAC
 40
1.0
  9
$DIMGAP
 40
0.09
  9
$LUNITS
 70
     2
  9
$LUPREC
 70
     4
  9
$SKETCHINC
 40
0.1
  9
$FILLETRAD
 40
0.0
  9
$AUNITS
 70
     0
  9
$AUPREC
 70
     0
  9
$MENU
  1
.
  9
$ELEVATION
 40
0.0
  9
$PELEVATION
 40
0.0
  9
$THICKNESS
 40
0.0
  9
$LIMCHECK
 70
     0
  9
$BLIPMODE
 70
     0
  9
$CHAMFERA
 40
0.0
  9
$CHAMFERB
 40
0.0
  9
$SKPOLY
 70
     0
  9
$TDCREATE
 40
2457375.55930353
  9
$TDUPDATE
 40
2457378.99296221
  9
$TDINDWG
 40
0.0001406481
  9
$TDUSRTIMER
 40
0.0001406481
  9
$USRTIMER
 70
     1
  9
$ANGBASE
 50
0.0
  9
$ANGDIR
 70
     0
  9
$PDMODE
 70
     0
  9
$PDSIZE
 40
0.0
  9
$PLINEWID
 40
0.0
  9
$COORDS
 70
     2
  9
$SPLFRAME
 70
     0
  9
$SPLINETYPE
 70
     6
  9
$SPLINESEGS
 70
     8
  9
$ATTDIA
 70
     0
  9
$ATTREQ
 70
     0
  9
$HANDLING
 70
     1
  9
$HANDSEED
  5
271
  9
$SURFTAB1
 70
     6
  9
$SURFTAB2
 70
     6
  9
$SURFTYPE
 70
     6
  9
$SURFU
 70
     6
  9
$SURFV
 70
     6
  9
$UCSNAME
  2

  9
$UCSORG
 10
0.0
 20
0.0
 30
0.0
  9
$UCSXDIR
 10
1.0
 20
0.0
 30
0.0
  9
$UCSYDIR
 10
0.0
 20
1.0
 30
0.0
  9
$PUCSNAME
  2

  9
$PUCSORG
 10
0.0
 20
0.0
 30
0.0
  9
$PUCSXDIR
 10
1.0
 20
0.0
 30
0.0
  9
$PUCSYDIR
 10
0.0
 20
1.0
 30
0.0
  9
$USERI1
 70
     0
  9
$USERI2
 70
     0
  9
$USERI3
 70
     0
  9
$USERI4
 70
     0
  9
$USERI5
 70
     0
  9
$USERR1
 40
0.0
  9
$USERR2
 40
0.0
  9
$USERR3
 40
0.0
  9
$USERR4
 40
0.0
  9
$USERR5
 40
0.0
  9
$WORLDVIEW
 70
     1
  9
$SHADEDGE
 70
     3
  9
$SHADEDIF
 70
    70
  9
$TILEMODE
 70
     1
  9
$MAXACTVP
 70
    64
  9
$PLIMCHECK
 70
     0
  9
$PEXTMIN
 10
0.0
 20
0.0
 30
0.0
  9
$PEXTMAX
 10
0.0
 20
0.0
 30
0.0
  9
$PLIMMIN
 10
0.0
 20
0.0
  9
$PLIMMAX
 10
12.0
 20
9.0
  9
$UNITMODE
 70
     0
  9
$VISRETAIN
 70
     1
  9
$PLINEGEN
 70
     0
  9
$PSLTSCALE
 70
     1
  0
ENDSEC
  0
SECTION
  2
TABLES
  0
TABLE
  2
VPORT
 70
     1
  0
VPORT
  2
*ACTIVE
 70
     0
 10
0.0
 20
0.0
 11
1.0
 21
1.0
 12
540.31733689293503
 22
140.04014868109539
 13
0.0
 23
0.0
 14
1.0
 24
1.0
 15
0.0
 25
0.0
 16
0.0
 26
0.0
 36
1.0
 17
0.0
 27
0.0
 37
0.0
 40
677.35145804828903
 41
1.7244755244755241
 42
50.0
 43
0.0
 44
0.0
 50
0.0
 51
0.0
 71
     0
 72
  1000
 73
     1
 74
     3
 75
     0
 76
     0
 77
     0
 78
     0
  0
ENDTAB
  0
TABLE
  2
LTYPE
 70
     2
  0
LTYPE
  2
CONTINUOUS
 70
     0
  3
Solid line
 72
    65
 73
     0
 40
0.0
  0
LTYPE
  2
DASH
 70
     0
  3

 72
    65
 73
     2
 40
6.3499999999999988
 49
3.1749999999999989
 49
-3.1749999999999989
  0
ENDTAB
  0
TABLE
  2
LAYER
 70
     6
  0
LAYER
  2
0
 70
     0
 62
     7
  6
CONTINUOUS
  0
LAYER
  2
DEFPOINTS
 70
     0
 62
     7
  6
CONTINUOUS
  0
ENDTAB
  0
TABLE
  2
STYLE
 70
     3
  0
STYLE
  2
STANDARD
 70
     0
 40
0.0
 41
1.0
 50
0.0
 71
     0
 42
0.2
  3
txt
  4

  0
STYLE
  2
ARIAL
 70
     0
 40
5.9011976047904202
 41
1.0
 50
0.0
 71
     0
 42
0.2
  3
txt
  4

  0
ENDTAB
  0
TABLE
  2
VIEW
 70
     0
  0
ENDTAB
  0
TABLE
  2
UCS
 70
     0
  0
ENDTAB
  0
TABLE
  2
APPID
 70
     5
  0
APPID
  2
ACAD
 70
     0
  0
APPID
  2
ACADANNOTATIVE
 70
     0
  0
APPID
  2
REVIT
 70
     0
  0
APPID
  2
ACAD_NAV_VCDISPLAY
 70
     0
  0
APPID
  2
ACAD_MLEADERVER
 70
     0
  0
ENDTAB
  0
TABLE
  2
DIMSTYLE
 70
     3
  0
DIMSTYLE
  2
STANDARD
 70
     0
  3

  4

  5

  6

  7

 40
1.0
 41
0.18
 42
0.0625
 43
0.38
 44
0.18
 45
0.0
 46
0.0
 47
0.0
 48
0.0
140
0.18
141
0.09
142
0.0
143
25.399999999999999
144
1.0
145
0.0
146
1.0
147
0.09
 71
     0
 72
     0
 73
     1
 74
     1
 75
     0
 76
     0
 77
     0
 78
     0
170
     0
171
     2
172
     0
173
     0
174
     0
175
     0
176
     0
177
     0
178
     0
  0
DIMSTYLE
  2
LINEAR
 70
     0
  3
<>
  4

  5

  6
OBLIQUE
  7
OBLIQUE
 40
304.80000000000001
 41
0.0131233595800525
 42
0.0131233595800525
 43
0.38
 44
0.0131233595800525
 45
0.0
 46
0.0
 47
0.0
 48
0.0
140
6.0
141
0.09
142
0.0
143
25.399999999999999
144
1.0
145
1.0
146
1.0
147
0.0131233595800525
 71
     0
 72
     0
 73
     0
 74
     0
 75
     0
 76
     0
 77
     1
 78
     0
170
     0
171
     2
172
     1
173
     1
174
     1
175
     0
176
     0
177
     0
178
     0
  0
ENDTAB
  0
ENDSEC
  0
SECTION
  2
BLOCKS
  0
BLOCK
  8
0
  2
$MODEL_SPACE
 70
     0
 10
0.0
 20
0.0
 30
0.0
  3
$MODEL_SPACE
  1

  0
ENDBLK
  5
72
  8
0
  0
BLOCK
 67
     1
  8
0
  2
$PAPER_SPACE
 70
     0
 10
0.0
 20
0.0
 30
0.0
  3
$PAPER_SPACE
  1

  0
ENDBLK
  5
76
 67
     1
  8
0
  0
BLOCK
  8
0
  2
_OBLIQUE
 70
     0
 10
0.0
 20
0.0
 30
0.0
  3
_OBLIQUE
  1

  0
LINE
  5
ED
  8
0
  6
BYBLOCK
 62
     0
 10
-0.5
 20
-0.5
 30
0.0
 11
0.5
 21
0.5
 31
0.0
  0
ENDBLK
  5
EF
  8
0
  0
BLOCK
  8
0
  2
DIMBLOCK1-REF__LEVEL
 70
     0
 10
0.0
 20
0.0
 30
0.0
  3
DIMBLOCK1-REF__LEVEL
  1

  0
LINE
  5
1A8
  8
0
 62
     0
 10
-23.499614510203742
 20
-189.0
 30
0.0
 11
-23.499614510203742
 21
-268.05035713300788
 31
0.0
  0
LINE
  5
1A9
  8
0
 62
     0
 10
23.500385489796258
 20
-189.0
 30
0.0
 11
23.500385489796258
 21
-268.05035713300788
 31
0.0
  0
LINE
  5
1AA
  8
0
 62
     0
 10
-23.499614510203742
 20
-264.05035713300788
 30
0.0
 11
23.500385489796258
 21
-264.05035713300788
 31
0.0
  0
INSERT
  5
1AB
  8
0
 62
     0
  2
_OBLIQUE
 10
-23.499614510203742
 20
-264.05035713300788
 30
0.0
 41
4.0
 42
4.0
 43
4.0
 50
180.0
  0
INSERT
  5
1AC
  8
0
 62
     0
  2
_OBLIQUE
 10
23.500385489796258
 20
-264.05035713300788
 30
0.0
 41
4.0
 42
4.0
 43
4.0
  0
INSERT
  5
1AD
  8
0
  2
*U11
 10
0.0
 20
0.0
 30
0.0
  0
POINT
  5
1AE
  8
DEFPOINTS
 62
     0
 10
-23.499614510203742
 20
-185.0
 30
0.0
  0
POINT
  5
1AF
  8
DEFPOINTS
 62
     0
 10
23.500385489796258
 20
-185.0
 30
0.0
  0
POINT
  5
1B0
  8
DEFPOINTS
 62
     0
 10
23.500385489796258
 20
-264.05035713300788
 30
0.0
  0
ENDBLK
  5
EA
  8
0
  0
BLOCK
  8
0
  2
DIMBLOCK2-REF__LEVEL
 70
     0
 10
0.0
 20
0.0
 30
0.0
  3
DIMBLOCK2-REF__LEVEL
  1

  0
LINE
  5
19F
  8
0
 62
     0
 10
-53.499614510203763
 20
44.000000000000071
 30
0.0
 11
-53.499614510203763
 21
60.029217766586093
 31
0.0
  0
LINE
  5
1A0
  8
0
 62
     0
 10
53.500385489796251
 20
44.000000000000071
 30
0.0
 11
53.500385489796251
 21
60.029217766586093
 31
0.0
  0
LINE
  5
1A1
  8
0
 62
     0
 10
-53.499614510203763
 20
56.029217766586079
 30
0.0
 11
53.500385489796251
 21
56.029217766586079
 31
0.0
  0
INSERT
  5
1A2
  8
0
 62
     0
  2
_OBLIQUE
 10
-53.499614510203763
 20
56.029217766586079
 30
0.0
 41
4.0
 42
4.0
 43
4.0
 50
180.0
  0
INSERT
  5
1A3
  8
0
 62
     0
  2
_OBLIQUE
 10
53.500385489796251
 20
56.029217766586079
 30
0.0
 41
4.0
 42
4.0
 43
4.0
  0
INSERT
  5
1A4
  8
0
  2
*U10
 10
0.0
 20
0.0
 30
0.0
  0
POINT
  5
1A5
  8
DEFPOINTS
 62
     0
 10
-53.499614510203763
 20
40.000000000000071
 30
0.0
  0
POINT
  5
1A6
  8
DEFPOINTS
 62
     0
 10
53.500385489796251
 20
40.000000000000071
 30
0.0
  0
POINT
  5
1A7
  8
DEFPOINTS
 62
     0
 10
53.500385489796251
 20
56.029217766586079
 30
0.0
  0
ENDBLK
  5
10B
  8
0
  0
BLOCK
  8
0
  2
DIMBLOCK3-REF__LEVEL
 70
     0
 10
0.0
 20
0.0
 30
0.0
  3
DIMBLOCK3-REF__LEVEL
  1

  0
LINE
  5
196
  8
0
 62
     0
 10
-57.499614510203749
 20
40.000000000000071
 30
0.0
 11
-75.987789263513775
 21
40.000000000000071
 31
0.0
  0
LINE
  5
197
  8
0
 62
     0
 10
-57.499614510203749
 20
-185.0
 30
0.0
 11
-75.987789263513832
 21
-184.99999999999989
 31
0.0
  0
LINE
  5
198
  8
0
 62
     0
 10
-71.987789263513775
 20
40.000000000000071
 30
0.0
 11
-71.987789263513832
 21
-184.99999999999989
 31
0.0
  0
INSERT
  5
199
  8
0
 62
     0
  2
_OBLIQUE
 10
-71.987789263513775
 20
40.000000000000071
 30
0.0
 41
4.0
 42
4.0
 43
4.0
 50
90.0
  0
INSERT
  5
19A
  8
0
 62
     0
  2
_OBLIQUE
 10
-71.987789263513832
 20
-184.99999999999989
 30
0.0
 41
4.0
 42
4.0
 43
4.0
 50
270.0
  0
INSERT
  5
19B
  8
0
  2
*U9
 10
0.0
 20
0.0
 30
0.0
  0
POINT
  5
19C
  8
DEFPOINTS
 62
     0
 10
-53.499614510203763
 20
40.000000000000071
 30
0.0
  0
POINT
  5
19D
  8
DEFPOINTS
 62
     0
 10
-53.499614510203749
 20
-185.0
 30
0.0
  0
POINT
  5
19E
  8
DEFPOINTS
 62
     0
 10
-71.987789263513832
 20
-184.99999999999989
 30
0.0
  0
ENDBLK
  5
125
  8
0
  0
BLOCK
  8
0
  2
DIMBLOCK4-REF__LEVEL
 70
     0
 10
0.0
 20
0.0
 30
0.0
  3
DIMBLOCK4-REF__LEVEL
  1

  0
LINE
  5
18D
  8
0
 62
     0
 10
92.758616323231436
 20
-185.0
 30
0.0
 11
95.587043447977578
 21
-185.0
 31
0.0
  0
LINE
  5
18E
  8
0
 62
     0
 10
92.758616323231436
 20
-9.9999999999999964
 30
0.0
 11
95.587043447977635
 21
-9.9999999999999964
 31
0.0
  0
LINE
  5
18F
  8
0
 62
     0
 10
91.587043447977607
 20
-185.0
 30
0.0
 11
91.587043447977635
 21
-9.9999999999999947
 31
0.0
  0
INSERT
  5
190
  8
0
 62
     0
  2
_OBLIQUE
 10
91.587043447977607
 20
-185.0
 30
0.0
 41
4.0
 42
4.0
 43
4.0
 50
270.0
  0
INSERT
  5
191
  8
0
 62
     0
  2
_OBLIQUE
 10
91.587043447977635
 20
-9.9999999999999947
 30
0.0
 41
4.0
 42
4.0
 43
4.0
 50
90.0
  0
INSERT
  5
192
  8
0
  2
*U8
 10
0.0
 20
0.0
 30
0.0
  0
POINT
  5
193
  8
DEFPOINTS
 62
     0
 10
88.758616323231436
 20
-185.0
 30
0.0
  0
POINT
  5
194
  8
DEFPOINTS
 62
     0
 10
88.758616323231436
 20
-9.9999999999999947
 30
0.0
  0
POINT
  5
195
  8
DEFPOINTS
 62
     0
 10
91.587043447977635
 20
-9.9999999999999947
 30
0.0
  0
ENDBLK
  5
13F
  8
0
  0
BLOCK
  8
0
  2
DIMBLOCK5-REF__LEVEL
 70
     0
 10
0.0
 20
0.0
 30
0.0
  3
DIMBLOCK5-REF__LEVEL
  1

  0
LINE
  5
184
  8
0
 62
     0
 10
-329.22959116390439
 20
404.55279458696037
 30
0.0
 11
-358.63315773694239
 21
404.55249647759712
 31
0.0
  0
LINE
  5
185
  8
0
 62
     0
 10
-329.2280703822542
 20
254.55279458696151
 30
0.0
 11
-358.63163695529221
 21
254.5524964775982
 31
0.0
  0
LINE
  5
186
  8
0
 62
     0
 10
-354.63315773714788
 20
404.55253703177442
 30
0.0
 11
-354.6316369554977
 21
254.55253703177561
 31
0.0
  0
INSERT
  5
187
  8
0
 62
     0
  2
_OBLIQUE
 10
-354.63315773714788
 20
404.55253703177442
 30
0.0
 41
4.0
 42
4.0
 43
4.0
 50
90.000580895800766
  0
INSERT
  5
188
  8
0
 62
     0
  2
_OBLIQUE
 10
-354.6316369554977
 20
254.55253703177561
 30
0.0
 41
4.0
 42
4.0
 43
4.0
 50
270.00058089580079
  0
INSERT
  5
189
  8
0
  2
*U7
 10
0.0
 20
0.0
 30
0.0
  0
POINT
  5
18A
  8
DEFPOINTS
 62
     0
 10
-325.22959116410999
 20
404.55283514113779
 30
0.0
  0
POINT
  5
18B
  8
DEFPOINTS
 62
     0
 10
-325.2280703824598
 20
254.5528351411389
 30
0.0
  0
POINT
  5
18C
  8
DEFPOINTS
 62
     0
 10
-354.6316369554977
 20
254.55253703177561
 30
0.0
  0
ENDBLK
  5
159
  8
0
  0
BLOCK
  8
0
  2
*U7
 70
     1
 10
0.0
 20
0.0
 30
0.0
  3
*U7
  1

  0
TEXT
  5
25E
  8
0
 62
     0
 10
-350.51975916454592
 20
336.68151526178752
 30
0.0
 40
5.9011976047904202
  1
150
 50
270.00058089580079
  7
ARIAL
  0
ENDBLK
  5
260
  8
0
  0
BLOCK
  8
0
  2
*U8
 70
     1
 10
0.0
 20
0.0
 30
0.0
  3
*U8
  1

  0
TEXT
  5
262
  8
0
 62
     0
 10
87.474332988950266
 20
-104.661139521775
 30
0.0
 40
5.9011976047904202
  1
175
 50
90.0
  7
ARIAL
  0
ENDBLK
  5
264
  8
0
  0
BLOCK
  8
0
  2
*U9
 70
     1
 10
0.0
 20
0.0
 30
0.0
  3
*U9
  1

  0
TEXT
  5
266
  8
0
 62
     0
 10
-76.100499722541159
 20
-79.333071578534586
 30
0.0
 40
5.9011976047904202
  1
225
 50
90.0
  7
ARIAL
  0
ENDBLK
  5
268
  8
0
  0
BLOCK
  8
0
  2
*U10
 70
     1
 10
0.0
 20
0.0
 30
0.0
  3
*U10
  1

  0
TEXT
  5
26A
  8
0
 62
     0
 10
-7.1386144775269482
 20
60.141928225613448
 30
0.0
 40
5.9011976047904202
  1
107
  7
ARIAL
  0
ENDBLK
  5
26C
  8
0
  0
BLOCK
  8
0
  2
*U11
 70
     1
 10
0.0
 20
0.0
 30
0.0
  3
*U11
  1

  0
TEXT
  5
26E
  8
0
 62
     0
 10
-4.4496649550167078
 20
-260.05035713300788
 30
0.0
 40
5.9011976047904202
  1
47
  7
ARIAL
  0
ENDBLK
  5
270
  8
0
  0
ENDSEC
  0
SECTION
  2
ENTITIES
  0
LINE
  5
89
  8
0
 10
53.500385489796251
 20
40.000000000000071
 30
0.0
 11
53.500385489796251
 21
-185.0
 31
0.0
1001
REVIT
1002
{
1070
     1
1000
334421
1002
}
1002
{
1070
     2
1000
-2002000
1002
}
  0
LINE
  5
8A
  8
0
 10
53.500385489796251
 20
-185.0
 30
0.0
 11
43.500385489796251
 21
-185.0
 31
0.0
1001
REVIT
1002
{
1070
     1
1000
334422
1002
}
1002
{
1070
     2
1000
-2002000
1002
}
  0
LINE
  5
8B
  8
0
 10
43.500385489796251
 20
-185.0
 30
0.0
 11
43.500385489796251
 21
30.000000000000082
 31
0.0
1001
REVIT
1002
{
1070
     1
1000
334423
1002
}
1002
{
1070
     2
1000
-2002000
1002
}
  0
LINE
  5
8C
  8
0
 10
43.500385489796251
 20
30.000000000000089
 30
0.0
 11
53.500385489796251
 21
40.000000000000071
 31
0.0
1001
REVIT
1002
{
1070
     1
1000
334424
1002
}
1002
{
1070
     2
1000
-2002000
1002
}
  0
LINE
  5
8D
  8
0
 10
53.500385489796251
 20
40.000000000000071
 30
0.0
 11
-53.499614510203749
 21
40.000000000000071
 31
0.0
1001
REVIT
1002
{
1070
     1
1000
334425
1002
}
1002
{
1070
     2
1000
-2002000
1002
}
  0
LINE
  5
8E
  8
0
 10
-53.499614510203749
 20
40.000000000000071
 30
0.0
 11
-53.499614510203749
 21
-185.0
 31
0.0
1001
REVIT
1002
{
1070
     1
1000
334426
1002
}
1002
{
1070
     2
1000
-2002000
1002
}
  0
LINE
  5
8F
  8
0
 10
-53.499614510203749
 20
-185.0
 30
0.0
 11
-43.499614510203742
 21
-185.0
 31
0.0
1001
REVIT
1002
{
1070
     1
1000
334427
1002
}
1002
{
1070
     2
1000
-2002000
1002
}
  0
LINE
  5
90
  8
0
 10
-43.499614510203742
 20
-185.0
 30
0.0
 11
-43.499614510203742
 21
30.000000000000082
 31
0.0
1001
REVIT
1002
{
1070
     1
1000
334428
1002
}
1002
{
1070
     2
1000
-2002000
1002
}
  0
LINE
  5
91
  8
0
 10
-43.499614510203742
 20
30.000000000000089
 30
0.0
 11
43.500385489796251
 21
30.000000000000089
 31
0.0
1001
REVIT
1002
{
1070
     1
1000
334429
1002
}
1002
{
1070
     2
1000
-2002000
1002
}
  0
LINE
  5
92
  8
0
 10
43.500385489796251
 20
-185.0
 30
0.0
 11
23.500385489796258
 21
-185.0
 31
0.0
1001
REVIT
1002
{
1070
     1
1000
334430
1002
}
1002
{
1070
     2
1000
-2002000
1002
}
  0
LINE
  5
93
  8
0
 10
23.500385489796258
 20
-185.0
 30
0.0
 11
23.500385489796258
 21
-10.00000000000003
 31
0.0
1001
REVIT
1002
{
1070
     1
1000
334431
1002
}
1002
{
1070
     2
1000
-2002000
1002
}
1002
{
1070
     3
1000
206783
1002
}
  0
LINE
  5
94
  8
0
 10
23.500385489796258
 20
-9.9999999999999947
 30
0.0
 11
-23.499614510203731
 21
-9.9999999999999947
 31
0.0
1001
REVIT
1002
{
1070
     1
1000
334432
1002
}
1002
{
1070
     2
1000
-2002000
1002
}
1002
{
1070
     3
1000
206783
1002
}
  0
LINE
  5
95
  8
0
 10
-23.499614510203742
 20
-9.9999999999999947
 30
0.0
 11
-23.499614510203742
 21
-185.0
 31
0.0
1001
REVIT
1002
{
1070
     1
1000
334433
1002
}
1002
{
1070
     2
1000
-2002000
1002
}
1002
{
1070
     3
1000
206783
1002
}
  0
LINE
  5
96
  8
0
 10
-23.499614510203742
 20
-185.0
 30
0.0
 11
-43.499614510203742
 21
-185.0
 31
0.0
1001
REVIT
1002
{
1070
     1
1000
334434
1002
}
1002
{
1070
     2
1000
-2002000
1002
}
  0
LINE
  5
97
  8
0
 10
-43.499614510203763
 20
30.000000000000099
 30
0.0
 11
-53.499614510203671
 21
40.000000000000057
 31
0.0
1001
REVIT
1002
{
1070
     1
1000
334435
1002
}
1002
{
1070
     2
1000
-2002000
1002
}
  0
LINE
  5
98
  8
0
 10
-346.99961451020368
 20
30.000000000000739
 30
0.0
 11
-346.99961451020368
 21
40.000000000000732
 31
0.0
1001
REVIT
1002
{
1070
     1
1000
334436
1002
}
1002
{
1070
     2
1000
-2002000
1002
}
1002
{
1070
     3
1000
206783
1002
}
  0
LINE
  5
99
  8
0
 10
-346.99961451020368
 20
40.000000000000732
 30
0.0
 11
-349.99961451020368
 21
40.000000000000732
 31
0.0
1001
REVIT
1002
{
1070
     1
1000
334437
1002
}
1002
{
1070
     2
1000
-2002000
1002
}
1002
{
1070
     3
1000
206783
1002
}
  0
LINE
  5
9A
  8
0
 10
-349.99961451020368
 20
40.000000000000732
 30
0.0
 11
-349.99961451020368
 21
-9.9999999999999947
 31
0.0
1001
REVIT
1002
{
1070
     1
1000
334438
1002
}
1002
{
1070
     2
1000
-2002000
1002
}
1002
{
1070
     3
1000
206783
1002
}
  0
LINE
  5
9B
  8
0
 10
-349.99961451020368
 20
-9.9999999999999947
 30
0.0
 11
-279.99961451020368
 21
-9.9999999999999947
 31
0.0
1001
REVIT
1002
{
1070
     1
1000
334439
1002
}
1002
{
1070
     2
1000
-2002000
1002
}
1002
{
1070
     3
1000
206783
1002
}
  0
LINE
  5
9C
  8
0
 10
-279.99961451020368
 20
-9.9999999999999947
 30
0.0
 11
-279.99961451020368
 21
-185.0
 31
0.0
1001
REVIT
1002
{
1070
     1
1000
334440
1002
}
1002
{
1070
     2
1000
-2002000
1002
}
  0
LINE
  5
9D
  8
0
 10
-279.99961451020368
 20
-185.0
 30
0.0
 11
-349.99961451020368
 21
-185.0
 31
0.0
1001
REVIT
1002
{
1070
     1
1000
334441
1002
}
1002
{
1070
     2
1000
-2002000
1002
}
  0
LINE
  5
9E
  8
0
 10
-349.99961451020368
 20
-185.0
 30
0.0
 11
-349.99961451020368
 21
-10.00000000000003
 31
0.0
1001
REVIT
1002
{
1070
     1
1000
334442
1002
}
1002
{
1070
     2
1000
-2002000
1002
}
  0
LINE
  5
9F
  8
0
 10
-200.5812047468971
 20
543.11715565765076
 30
0.0
 11
-122.799458816377
 21
498.2098437066258
 31
0.0
1001
REVIT
1002
{
1070
     1
1000
334443
1002
}
1002
{
1070
     2
1000
-2002000
1002
}
  0
LINE
  5
A0
  8
0
 10
-122.7994588163769
 20
498.2098437066258
 30
0.0
 11
-120.6781384728173
 21
499.43458857801733
 31
0.0
1001
REVIT
1002
{
1070
     1
1000
334444
1002
}
1002
{
1070
     2
1000
-2002000
1002
}
  0
LINE
  5
A1
  8
0
 10
-120.6781384728173
 20
499.43458857801733
 30
0.0
 11
-198.45988440333741
 21
544.34190052904228
 31
0.0
1001
REVIT
1002
{
1070
     1
1000
334445
1002
}
1002
{
1070
     2
1000
-2002000
1002
}
  0
LINE
  5
A2
  8
0
 10
-122.7994588163767
 20
498.20984370662592
 30
0.0
 11
-122.7994588163767
 21
272.38413663654552
 31
0.0
1001
REVIT
1002
{
1070
     1
1000
334446
1002
}
1002
{
1070
     2
1000
-2002000
1002
}
  0
LINE
  5
A3
  8
0
 10
-122.7994588163768
 20
272.38413663654552
 30
0.0
 11
-129.87052662824229
 21
276.46661954118417
 31
0.0
1001
REVIT
1002
{
1070
     1
1000
334447
1002
}
1002
{
1070
     2
1000
-2002000
1002
}
  0
LINE
  5
A4
  8
0
 10
-129.87052662824229
 20
276.46661954118417
 30
0.0
 11
-129.87052662824229
 21
494.12736080198692
 31
0.0
1001
REVIT
1002
{
1070
     1
1000
334448
1002
}
1002
{
1070
     2
1000
-2002000
1002
}
  0
LINE
  5
A5
  8
0
 10
-129.87052662824249
 20
494.12736080198709
 30
0.0
 11
-193.51013693503151
 21
530.86970694373485
 31
0.0
1001
REVIT
1002
{
1070
     1
1000
334449
1002
}
1002
{
1070
     2
1000
-2002000
1002
}
  0
LINE
  5
A6
  8
0
 10
-193.51013693503151
 20
530.86970694373485
 30
0.0
 11
-193.51013693503151
 21
481.87991208807102
 31
0.0
1001
REVIT
1002
{
1070
     1
1000
334450
1002
}
1002
{
1070
     2
1000
-2002000
1002
}
  0
LINE
  5
A7
  8
0
 10
-200.5812047468971
 20
477.79742918343243
 30
0.0
 11
-200.5812047468971
 21
543.11715565765076
 31
0.0
1001
REVIT
1002
{
1070
     1
1000
334451
1002
}
1002
{
1070
     2
1000
-2002000
1002
}
  0
LINE
  5
A8
  8
0
 10
-200.5812047468971
 20
543.11715565765076
 30
0.0
 11
-198.4598844033373
 21
544.34190052904228
 31
0.0
1001
REVIT
1002
{
1070
     1
1000
334452
1002
}
1002
{
1070
     2
1000
-2002000
1002
}
  0
LINE
  5
A9
  8
0
 10
-198.4598844033373
 20
544.34190052904228
 30
0.0
 11
-120.6781384728172
 21
499.43458857801733
 31
0.0
1001
REVIT
1002
{
1070
     1
1000
334453
1002
}
1002
{
1070
     2
1000
-2002000
1002
}
  0
LINE
  5
AA
  8
0
 10
-120.6781384728171
 20
273.60888150793699
 30
0.0
 11
-122.7994588163768
 21
272.38413663654552
 31
0.0
1001
REVIT
1002
{
1070
     1
1000
334454
1002
}
1002
{
1070
     2
1000
-2002000
1002
}
  0
LINE
  5
AB
  8
0
 10
-120.6781384728171
 20
499.4345885780175
 30
0.0
 11
-120.6781384728171
 21
273.60888150793699
 31
0.0
1001
REVIT
1002
{
1070
     1
1000
334455
1002
}
1002
{
1070
     2
1000
-2002000
1002
}
  0
LINE
  5
AC
  8
0
 10
-129.87052662824229
 20
278.91610928396727
 30
0.0
 11
-141.89134190841349
 21
285.85633022185289
 31
0.0
1001
REVIT
1002
{
1070
     1
1000
334456
1002
}
1002
{
1070
     2
1000
-2002000
1002
}
  0
LINE
  5
AD
  8
0
 10
-141.89134190841361
 20
470.85720824554681
 30
0.0
 11
-177.2466809677407
 21
491.26962276873991
 31
0.0
1001
REVIT
1002
{
1070
     1
1000
334457
1002
}
1002
{
1070
     2
1000
-2002000
1002
}
  0
LINE
  5
AE
  8
0
 10
-177.2466809677407
 20
491.26962276873991
 30
0.0
 11
-141.89134190841349
 21
470.85720824554681
 31
0.0
1001
REVIT
1002
{
1070
     1
1000
334458
1002
}
1002
{
1070
     2
1000
-2002000
1002
}
  0
LINE
  5
AF
  8
0
 10
-141.89134190841361
 20
285.85633022185289
 30
0.0
 11
-191.38881659147211
 21
257.2789498893826
 31
0.0
1001
REVIT
1002
{
1070
     1
1000
334459
1002
}
1002
{
1070
     2
1000
-2002000
1002
}
  0
LINE
  5
B0
  8
0
 10
-191.38881659147211
 20
442.27982791307647
 30
0.0
 11
-191.38881659147211
 21
257.2789498893826
 31
0.0
1001
REVIT
1002
{
1070
     1
1000
334460
1002
}
1002
{
1070
     2
1000
-2002000
1002
}
  0
LINE
  5
B1
  8
0
 10
-177.2466809677407
 20
491.26962276873991
 30
0.0
 11
-226.74415565079909
 21
462.69224243626962
 31
0.0
1001
REVIT
1002
{
1070
     1
1000
334461
1002
}
1002
{
1070
     2
1000
-2002000
1002
}
  0
LINE
  5
B2
  8
0
 10
-226.7441556507994
 20
462.69224243626979
 30
0.0
 11
-191.38881659147211
 21
442.27982791307647
 31
0.0
1001
REVIT
1002
{
1070
     1
1000
334462
1002
}
1002
{
1070
     2
1000
-2002000
1002
}
  0
LINE
  5
B3
  8
0
 10
-141.89134190841349
 20
470.85720824554681
 30
0.0
 11
-141.89134190841349
 21
285.85633022185289
 31
0.0
1001
REVIT
1002
{
1070
     1
1000
334463
1002
}
1002
{
1070
     2
1000
-2002000
1002
}
  0
LINE
  5
B4
  8
0
 10
-191.38881659147211
 20
298.10377893576867
 30
0.0
 11
-226.7441556507994
 21
277.69136441257569
 31
0.0
1001
REVIT
1002
{
1070
     1
1000
334464
1002
}
1002
{
1070
     2
1000
-2002000
1002
}
  0
LINE
  5
B5
  8
0
 10
-226.7441556507994
 20
277.69136441257569
 30
0.0
 11
-226.7441556507994
 21
462.69224243626979
 31
0.0
1001
REVIT
1002
{
1070
     1
1000
334465
1002
}
1002
{
1070
     2
1000
-2002000
1002
}
  0
LINE
  5
B7
  8
0
 10
-76.546273610624624
 20
398.12466460068839
 30
0.0
 11
-76.546273610624624
 21
548.13021547360381
 31
0.0
1001
REVIT
1002
{
1070
     1
1000
334466
1002
}
1002
{
1070
     2
1000
-2002000
1002
}
1002
{
1070
     3
1000
-2009514
1002
}
  0
LINE
  5
B8
  8
0
 10
-76.546273610624624
 20
548.13065449519831
 30
0.0
 11
-42.298420473197979
 21
528.35720824554346
 31
0.0
1001
REVIT
1002
{
1070
     1
1000
334467
1002
}
1002
{
1070
     2
1000
-2002000
1002
}
1002
{
1070
     3
1000
-2009514
1002
}
  0
LINE
  5
B9
  8
0
 10
-42.298420473198263
 20
528.3572082455438
 30
0.0
 11
-290.98173802668367
 21
384.77982791307772
 31
0.0
1001
REVIT
1002
{
1070
     1
1000
334468
1002
}
1002
{
1070
     2
1000
-2002000
1002
}
1002
{
1070
     3
1000
-2009514
1002
}
  0
LINE
  5
BA
  8
0
 10
-290.98173802668259
 20
384.77982791307829
 30
0.0
 11
-290.98173802668259
 21
234.77894988938451
 31
0.0
1001
REVIT
1002
{
1070
     1
1000
334469
1002
}
1002
{
1070
     2
1000
-2002000
1002
}
1002
{
1070
     3
1000
-2009514
1002
}
  0
LINE
  5
BB
  8
0
 10
-325.22807038245992
 20
254.5528351411389
 30
0.0
 11
-76.545893410991454
 21
398.12955695827031
 31
0.0
1001
REVIT
1002
{
1070
     1
1000
334470
1002
}
1002
{
1070
     2
1000
-2002000
1002
}
1002
{
1070
     3
1000
-2009514
1002
}
  0
LINE
  5
BC
  8
0
 10
-290.98173802668367
 20
384.77982791307772
 30
0.0
 11
-325.2295911641101
 21
404.55283514113779
 31
0.0
1001
REVIT
1002
{
1070
     1
1000
334471
1002
}
1002
{
1070
     2
1000
-2002000
1002
}
1002
{
1070
     3
1000
-2009514
1002
}
  0
LINE
  5
BD
  8
0
 10
-325.2295911641101
 20
404.55283514113779
 30
0.0
 11
-76.546273610624596
 21
548.13021547360393
 31
0.0
1001
REVIT
1002
{
1070
     1
1000
334472
1002
}
1002
{
1070
     2
1000
-2002000
1002
}
1002
{
1070
     3
1000
-2009514
1002
}
  0
LINE
  5
BE
  8
0
 10
-325.2280703824598
 20
254.5528351411389
 30
0.0
 11
-325.2280703824598
 21
404.55195711744261
 31
0.0
1001
REVIT
1002
{
1070
     1
1000
334473
1002
}
1002
{
1070
     2
1000
-2002000
1002
}
1002
{
1070
     3
1000
-2009514
1002
}
  0
LINE
  5
BF
  8
0
 10
-42.298420473197993
 20
528.35720824554346
 30
0.0
 11
-42.298420473197993
 21
378.35633022184982
 31
0.0
1001
REVIT
1002
{
1070
     1
1000
334474
1002
}
1002
{
1070
     2
1000
-2002000
1002
}
1002
{
1070
     3
1000
-2009514
1002
}
  0
LINE
  5
C0
  8
0
 10
-42.298420473198007
 20
378.35633022184982
 30
0.0
 11
-191.38881659147211
 21
292.27894988938118
 31
0.0
1001
REVIT
1002
{
1070
     1
1000
334475
1002
}
1002
{
1070
     2
1000
-2002000
1002
}
1002
{
1070
     3
1000
-2009514
1002
}
  0
LINE
  5
C1
  8
0
 10
-193.51013693503151
 20
530.86970694373485
 30
0.0
 11
-200.5812047468969
 21
543.11715565765064
 31
0.0
1001
REVIT
1002
{
1070
     1
1000
334476
1002
}
1002
{
1070
     2
1000
-2002000
1002
}
  0
LINE
  5
C2
  8
0
 10
-129.87052662824249
 20
494.12736080198709
 30
0.0
 11
-122.7994588163769
 21
498.2098437066258
 31
0.0
1001
REVIT
1002
{
1070
     1
1000
334477
1002
}
1002
{
1070
     2
1000
-2002000
1002
}
  0
LINE
  5
C3
  8
0
 10
-76.545893410991454
 20
398.12955695827031
 30
0.0
 11
-42.298420473198028
 21
378.35633022184982
 31
0.0
1001
REVIT
1002
{
1070
     1
1000
334478
1002
}
1002
{
1070
     2
1000
-2002000
1002
}
1002
{
1070
     3
1000
-2009514
1002
}
  0
LINE
  5
C4
  8
0
 10
-290.98097763585849
 20
234.7793889012313
 30
0.0
 11
-325.22883077328493
 21
254.5523961292914
 31
0.0
1001
REVIT
1002
{
1070
     1
1000
334479
1002
}
1002
{
1070
     2
1000
-2002000
1002
}
1002
{
1070
     3
1000
-2009514
1002
}
  0
LINE
  5
C5
  8
0
 10
-83.867735997265086
 20
254.35616370016439
 30
0.0
 11
-106.46408060427051
 21
238.53403287035491
 31
0.0
1001
REVIT
1002
{
1070
     1
1000
334480
1002
}
1002
{
1070
     2
1000
-2002000
1002
}
  0
LINE
  5
C6
  8
0
 10
-83.867735997265086
 20
304.35554068828009
 30
0.0
 11
-83.867735997265086
 21
254.35616370016439
 31
0.0
1001
REVIT
1002
{
1070
     1
1000
334481
1002
}
1002
{
1070
     2
1000
-2002000
1002
}
  0
LINE
  5
C7
  8
0
 10
-83.867735997265086
 20
254.35554068828009
 30
0.0
 11
-120.6781384728171
 21
275.60803646651863
 31
0.0
1001
REVIT
1002
{
1070
     1
1000
334482
1002
}
1002
{
1070
     2
1000
-2002000
1002
}
  0
LINE
  5
C8
  8
0
 10
-83.867735997265086
 20
304.35554068828009
 30
0.0
 11
-120.6781384728171
 21
325.60803646651851
 31
0.0
1001
REVIT
1002
{
1070
     1
1000
334483
1002
}
1002
{
1070
     2
1000
-2002000
1002
}
  0
LINE
  5
C9
  8
0
 10
-106.46408060427051
 20
238.53403287035491
 30
0.0
 11
-106.46408060427051
 21
203.53465588223921
 31
0.0
1001
REVIT
1002
{
1070
     1
1000
334484
1002
}
1002
{
1070
     2
1000
-2002000
1002
}
  0
LINE
  5
CA
  8
0
 10
-106.46408060427051
 20
203.53465588223921
 30
0.0
 11
-109.9996145102034
 21
199.99912197630641
 31
0.0
1001
REVIT
1002
{
1070
     1
1000
334485
1002
}
1002
{
1070
     2
1000
-2002000
1002
}
  0
LINE
  5
CB
  8
0
 10
-106.46408060427061
 20
203.53465588223921
 30
0.0
 11
-269.27720231047778
 21
297.53485552692138
 31
0.0
1001
REVIT
1002
{
1070
     1
1000
334486
1002
}
1002
{
1070
     2
1000
-2002000
1002
}
  0
LINE
  5
CC
  8
0
 10
-109.9996145102034
 20
199.99912197630641
 30
0.0
 11
-272.8127362164106
 21
293.99932162098872
 31
0.0
1001
REVIT
1002
{
1070
     1
1000
334487
1002
}
1002
{
1070
     2
1000
-2002000
1002
}
  0
LINE
  5
CD
  8
0
 10
-246.6797668050705
 20
398.35683123136511
 30
0.0
 11
-246.6797668050705
 21
348.35745424324932
 31
0.0
1001
REVIT
1002
{
1070
     1
1000
334488
1002
}
1002
{
1070
     2
1000
-2002000
1002
}
  0
LINE
  5
CE
  8
0
 10
-246.6797668050705
 20
348.35745424324932
 30
0.0
 11
-226.7441556507994
 21
336.84762377687139
 31
0.0
1001
REVIT
1002
{
1070
     1
1000
334489
1002
}
1002
{
1070
     2
1000
-2002000
1002
}
  0
LINE
  5
CF
  8
0
 10
-246.6797668050705
 20
398.35683123136511
 30
0.0
 11
-226.7441556507994
 21
386.84700076498729
 31
0.0
1001
REVIT
1002
{
1070
     1
1000
334490
1002
}
1002
{
1070
     2
1000
-2002000
1002
}
  0
LINE
  5
D0
  8
0
 10
-106.46408060427051
 20
238.53403287035491
 30
0.0
 11
-165.16002292818041
 21
272.4221509714032
 31
0.0
1001
REVIT
1002
{
1070
     1
1000
334491
1002
}
1002
{
1070
     2
1000
-2002000
1002
}
  0
LINE
  5
D1
  8
0
 10
-246.68085770347389
 20
348.35636334484479
 30
0.0
 11
-269.27720231047942
 21
332.53423251503528
 31
0.0
1001
REVIT
1002
{
1070
     1
1000
334492
1002
}
1002
{
1070
     2
1000
-2002000
1002
}
  0
LINE
  5
D2
  8
0
 10
-269.27720231047942
 20
332.53423251503528
 30
0.0
 11
-269.27720231047942
 21
297.5348555269224
 31
0.0
1001
REVIT
1002
{
1070
     1
1000
334493
1002
}
1002
{
1070
     2
1000
-2002000
1002
}
  0
LINE
  5
D3
  8
0
 10
-269.27720231047761
 20
297.53485552692138
 30
0.0
 11
-272.81273621641049
 21
293.99932162098861
 31
0.0
1001
REVIT
1002
{
1070
     1
1000
334494
1002
}
1002
{
1070
     2
1000
-2002000
1002
}
  0
LINE
  5
D4
  8
0
 10
-226.7441556507994
 20
307.97776657661689
 30
0.0
 11
-269.27720231047721
 21
332.53423251503688
 31
0.0
1001
REVIT
1002
{
1070
     1
1000
334495
1002
}
1002
{
1070
     2
1000
-2002000
1002
}
  0
LINE
  5
D5
  8
0
 10
-191.38881659147211
 20
287.56535205342379
 30
0.0
 11
-200.5153619875077
 21
292.83456549459629
 31
0.0
1001
REVIT
1002
{
1070
     1
1000
334496
1002
}
1002
{
1070
     2
1000
-2002000
1002
}
  0
LINE
  5
D6
  8
0
 10
-191.38881659147211
 20
292.27894988938118
 30
0.0
 11
-290.98173802668259
 21
234.77894988938439
 31
0.0
1001
REVIT
1002
{
1070
     1
1000
334497
1002
}
1002
{
1070
     2
1000
-2002000
1002
}
1002
{
1070
     3
1000
-2009514
1002
}
  0
LINE
  5
D7
  8
0
  6
DASH
 10
-325.2295911641101
 20
404.55283514113779
 30
0.0
 11
-290.98173802668248
 21
234.77894988938411
 31
0.0
1001
REVIT
1002
{
1070
     1
1000
334498
1002
}
1002
{
1070
     2
1000
-2002000
1002
}
1002
{
1070
     3
1000
291475
1002
}
  0
LINE
  5
D8
  8
0
  6
DASH
 10
-290.98173802668259
 20
384.77982791307829
 30
0.0
 11
-325.22807038245992
 21
254.5528351411389
 31
0.0
1001
REVIT
1002
{
1070
     1
1000
334499
1002
}
1002
{
1070
     2
1000
-2002000
1002
}
1002
{
1070
     3
1000
291475
1002
}
  0
LINE
  5
D9
  8
0
  6
DASH
 10
-76.546273610624667
 20
548.13065449519866
 30
0.0
 11
-42.298420473197872
 21
378.35633022184982
 31
0.0
1001
REVIT
1002
{
1070
     1
1000
334500
1002
}
1002
{
1070
     2
1000
-2002000
1002
}
1002
{
1070
     3
1000
291475
1002
}
  0
LINE
  5
DA
  8
0
  6
DASH
 10
-42.298420473198263
 20
528.3572082455438
 30
0.0
 11
-76.546273610624723
 21
398.12466460068799
 31
0.0
1001
REVIT
1002
{
1070
     1
1000
334501
1002
}
1002
{
1070
     2
1000
-2002000
1002
}
1002
{
1070
     3
1000
291475
1002
}
  0
ENDSEC
  0
EOF
