  0
SECTION
  2
HEADER
  9
$ACADVER
  1
AC1009
  9
$INSBASE
 10
0.0
 20
0.0
 30
0.0
  9
$EXTMIN
 10
-368.31623702424088
 20
-318.05035713300788
 30
0.0
  9
$EXTMAX
 10
95.587043447977635
 20
573.13065449519831
 30
0.0
  9
$LIMMIN
 10
0.0
 20
0.0
  9
$LIMMAX
 10
12.0
 20
9.0
  9
$ORTHOMODE
 70
     0
  9
$REGENMODE
 70
     1
  9
$FILLMODE
 70
     1
  9
$QTEXTMODE
 70
     0
  9
$MIRRTEXT
 70
     0
  9
$DRAGMODE
 70
     2
  9
$LTSCALE
 40
1.0
  9
$OSMODE
 70
   127
  9
$ATTMODE
 70
     1
  9
$TEXTSIZE
 40
0.2
  9
$TRACEWID
 40
0.05
  9
$TEXTSTYLE
  7
STANDARD
  9
$CLAYER
  8
0
  9
$CELTYPE
  6
BYLAYER
  9
$CECOLOR
 62
   256
  9
$DIMSCALE
 40
1.0
  9
$DIMASZ
 40
0.18
  9
$DIMEXO
 40
0.0625
  9
$DIMDLI
 40
0.38
  9
$DIMRND
 40
0.0
  9
$DIMDLE
 40
0.0
  9
$DIMEXE
 40
0.18
  9
$DIMTP
 40
0.0
  9
$DIMTM
 40
0.0
  9
$DIMTXT
 40
0.18
  9
$DIMCEN
 40
0.09
  9
$DIMTSZ
 40
0.0
  9
$DIMTOL
 70
     0
  9
$DIMLIM
 70
     0
  9
$DIMTIH
 70
     1
  9
$DIMTOH
 70
     1
  9
$DIMSE1
 70
     0
  9
$DIMSE2
 70
     0
  9
$DIMTAD
 70
     0
  9
$DIMZIN
 70
     0
  9
$DIMBLK
  1

  9
$DIMASO
 70
     1
  9
$DIMSHO
 70
     1
  9
$DIMPOST
  1

  9
$DIMAPOST
  1

  9
$DIMALT
 70
     0
  9
$DIMALTD
 70
     2
  9
$DIMALTF
 40
25.399999999999999
  9
$DIMLFAC
 40
1.0
  9
$DIMTOFL
 70
     0
  9
$DIMTVP
 40
0.0
  9
$DIMTIX
 70
     0
  9
$DIMSOXD
 70
     0
  9
$DIMSAH
 70
     0
  9
$DIMBLK1
  1

  9
$DIMBLK2
  1

  9
$DIMSTYLE
  2
STANDARD
  9
$DIMCLRD
 70
     0
  9
$DIMCLRE
 70
     0
  9
$DIMCLRT
 70
     0
  9
$DIMTFAC
 40
1.0
  9
$DIMGAP
 40
0.09
  9
$LUNITS
 70
     2
  9
$LUPREC
 70
     4
  9
$SKETCHINC
 40
0.1
  9
$FILLETRAD
 40
0.0
  9
$AUNITS
 70
     0
  9
$AUPREC
 70
     0
  9
$MENU
  1
.
  9
$ELEVATION
 40
0.0
  9
$PELEVATION
 40
0.0
  9
$THICKNESS
 40
0.0
  9
$LIMCHECK
 70
     0
  9
$BLIPMODE
 70
     0
  9
$CHAMFERA
 40
0.0
  9
$CHAMFERB
 40
0.0
  9
$SKPOLY
 70
     0
  9
$TDCREATE
 40
2457375.5591927548
  9
$TDUPDATE
 40
2457378.9927294911
  9
$TDINDWG
 40
0.0001187384
  9
$TDUSRTIMER
 40
0.0001187384
  9
$USRTIMER
 70
     1
  9
$ANGBASE
 50
0.0
  9
$ANGDIR
 70
     0
  9
$PDMODE
 70
     0
  9
$PDSIZE
 40
0.0
  9
$PLINEWID
 40
0.0
  9
$COORDS
 70
     2
  9
$SPLFRAME
 70
     0
  9
$SPLINETYPE
 70
     6
  9
$SPLINESEGS
 70
     8
  9
$ATTDIA
 70
     0
  9
$ATTREQ
 70
     0
  9
$HANDLING
 70
     1
  9
$HANDSEED
  5
271
  9
$SURFTAB1
 70
     6
  9
$SURFTAB2
 70
     6
  9
$SURFTYPE
 70
     6
  9
$SURFU
 70
     6
  9
$SURFV
 70
     6
  9
$UCSNAME
  2

  9
$UCSORG
 10
0.0
 20
0.0
 30
0.0
  9
$UCSXDIR
 10
1.0
 20
0.0
 30
0.0
  9
$UCSYDIR
 10
0.0
 20
1.0
 30
0.0
  9
$PUCSNAME
  2

  9
$PUCSORG
 10
0.0
 20
0.0
 30
0.0
  9
$PUCSXDIR
 10
1.0
 20
0.0
 30
0.0
  9
$PUCSYDIR
 10
0.0
 20
1.0
 30
0.0
  9
$USERI1
 70
     0
  9
$USERI2
 70
     0
  9
$USERI3
 70
     0
  9
$USERI4
 70
     0
  9
$USERI5
 70
     0
  9
$USERR1
 40
0.0
  9
$USERR2
 40
0.0
  9
$USERR3
 40
0.0
  9
$USERR4
 40
0.0
  9
$USERR5
 40
0.0
  9
$WORLDVIEW
 70
     1
  9
$SHADEDGE
 70
     3
  9
$SHADEDIF
 70
    70
  9
$TILEMODE
 70
     1
  9
$MAXACTVP
 70
    64
  9
$PLIMCHECK
 70
     0
  9
$PEXTMIN
 10
0.0
 20
0.0
 30
0.0
  9
$PEXTMAX
 10
0.0
 20
0.0
 30
0.0
  9
$PLIMMIN
 10
0.0
 20
0.0
  9
$PLIMMAX
 10
12.0
 20
9.0
  9
$UNITMODE
 70
     0
  9
$VISRETAIN
 70
     1
  9
$PLINEGEN
 70
     0
  9
$PSLTSCALE
 70
     1
  0
ENDSEC
  0
SECTION
  2
TABLES
  0
TABLE
  2
VPORT
 70
     1
  0
VPORT
  2
*ACTIVE
 70
     0
 10
0.0
 20
0.0
 11
1.0
 21
1.0
 12
623.15955063886281
 22
127.5401486810952
 13
0.0
 23
0.0
 14
1.0
 24
1.0
 15
0.0
 25
0.0
 16
0.0
 26
0.0
 36
1.0
 17
0.0
 27
0.0
 37
0.0
 40
739.59421869800985
 41
1.7244755244755241
 42
50.0
 43
0.0
 44
0.0
 50
0.0
 51
0.0
 71
     0
 72
  1000
 73
     1
 74
     3
 75
     0
 76
     0
 77
     0
 78
     0
  0
ENDTAB
  0
TABLE
  2
LTYPE
 70
     2
  0
LTYPE
  2
CONTINUOUS
 70
     0
  3
Solid line
 72
    65
 73
     0
 40
0.0
  0
LTYPE
  2
DASH
 70
     0
  3

 72
    65
 73
     2
 40
6.3499999999999988
 49
3.1749999999999989
 49
-3.1749999999999989
  0
ENDTAB
  0
TABLE
  2
LAYER
 70
     6
  0
LAYER
  2
0
 70
     0
 62
     7
  6
CONTINUOUS
  0
LAYER
  2
DEFPOINTS
 70
     0
 62
     7
  6
CONTINUOUS
  0
ENDTAB
  0
TABLE
  2
STYLE
 70
     3
  0
STYLE
  2
STANDARD
 70
     0
 40
0.0
 41
1.0
 50
0.0
 71
     0
 42
0.2
  3
txt
  4

  0
STYLE
  2
ARIAL
 70
     0
 40
5.9011976047904202
 41
1.0
 50
0.0
 71
     0
 42
0.2
  3
txt
  4

  0
ENDTAB
  0
TABLE
  2
VIEW
 70
     0
  0
ENDTAB
  0
TABLE
  2
UCS
 70
     0
  0
ENDTAB
  0
TABLE
  2
APPID
 70
     5
  0
APPID
  2
ACAD
 70
     0
  0
APPID
  2
ACADANNOTATIVE
 70
     0
  0
APPID
  2
REVIT
 70
     0
  0
APPID
  2
ACAD_NAV_VCDISPLAY
 70
     0
  0
APPID
  2
ACAD_MLEADERVER
 70
     0
  0
ENDTAB
  0
TABLE
  2
DIMSTYLE
 70
     3
  0
DIMSTYLE
  2
STANDARD
 70
     0
  3

  4

  5

  6

  7

 40
1.0
 41
0.18
 42
0.0625
 43
0.38
 44
0.18
 45
0.0
 46
0.0
 47
0.0
 48
0.0
140
0.18
141
0.09
142
0.0
143
25.399999999999999
144
1.0
145
0.0
146
1.0
147
0.09
 71
     0
 72
     0
 73
     1
 74
     1
 75
     0
 76
     0
 77
     0
 78
     0
170
     0
171
     2
172
     0
173
     0
174
     0
175
     0
176
     0
177
     0
178
     0
  0
DIMSTYLE
  2
LINEAR
 70
     0
  3
<>
  4

  5

  6
OBLIQUE
  7
OBLIQUE
 40
304.80000000000001
 41
0.0131233595800525
 42
0.0131233595800525
 43
0.38
 44
0.0131233595800525
 45
0.0
 46
0.0
 47
0.0
 48
0.0
140
6.0
141
0.09
142
0.0
143
25.399999999999999
144
1.0
145
1.0
146
1.0
147
0.0131233595800525
 71
     0
 72
     0
 73
     0
 74
     0
 75
     0
 76
     0
 77
     1
 78
     0
170
     0
171
     2
172
     1
173
     1
174
     1
175
     0
176
     0
177
     0
178
     0
  0
ENDTAB
  0
ENDSEC
  0
SECTION
  2
BLOCKS
  0
BLOCK
  8
0
  2
$MODEL_SPACE
 70
     0
 10
0.0
 20
0.0
 30
0.0
  3
$MODEL_SPACE
  1

  0
ENDBLK
  5
72
  8
0
  0
BLOCK
 67
     1
  8
0
  2
$PAPER_SPACE
 70
     0
 10
0.0
 20
0.0
 30
0.0
  3
$PAPER_SPACE
  1

  0
ENDBLK
  5
76
 67
     1
  8
0
  0
BLOCK
  8
0
  2
_OBLIQUE
 70
     0
 10
0.0
 20
0.0
 30
0.0
  3
_OBLIQUE
  1

  0
LINE
  5
ED
  8
0
  6
BYBLOCK
 62
     0
 10
-0.5
 20
-0.5
 30
0.0
 11
0.5
 21
0.5
 31
0.0
  0
ENDBLK
  5
EF
  8
0
  0
BLOCK
  8
0
  2
DIMBLOCK1-REF__LEVEL
 70
     0
 10
0.0
 20
0.0
 30
0.0
  3
DIMBLOCK1-REF__LEVEL
  1

  0
LINE
  5
1A8
  8
0
 62
     0
 10
-23.49961451020366
 20
-239.0
 30
0.0
 11
-23.499614510203671
 21
-318.05035713300788
 31
0.0
  0
LINE
  5
1A9
  8
0
 62
     0
 10
23.500385489796258
 20
-239.0
 30
0.0
 11
23.500385489796258
 21
-318.05035713300788
 31
0.0
  0
LINE
  5
1AA
  8
0
 62
     0
 10
-23.499614510203671
 20
-314.05035713300788
 30
0.0
 11
23.500385489796258
 21
-314.05035713300788
 31
0.0
  0
INSERT
  5
1AB
  8
0
 62
     0
  2
_OBLIQUE
 10
-23.499614510203671
 20
-314.05035713300788
 30
0.0
 41
4.0
 42
4.0
 43
4.0
 50
180.0
  0
INSERT
  5
1AC
  8
0
 62
     0
  2
_OBLIQUE
 10
23.500385489796258
 20
-314.05035713300788
 30
0.0
 41
4.0
 42
4.0
 43
4.0
  0
INSERT
  5
1AD
  8
0
  2
*U11
 10
0.0
 20
0.0
 30
0.0
  0
POINT
  5
1AE
  8
DEFPOINTS
 62
     0
 10
-23.49961451020366
 20
-235.0
 30
0.0
  0
POINT
  5
1AF
  8
DEFPOINTS
 62
     0
 10
23.500385489796258
 20
-235.0
 30
0.0
  0
POINT
  5
1B0
  8
DEFPOINTS
 62
     0
 10
23.500385489796258
 20
-314.05035713300788
 30
0.0
  0
ENDBLK
  5
EA
  8
0
  0
BLOCK
  8
0
  2
DIMBLOCK2-REF__LEVEL
 70
     0
 10
0.0
 20
0.0
 30
0.0
  3
DIMBLOCK2-REF__LEVEL
  1

  0
LINE
  5
19F
  8
0
 62
     0
 10
-53.499614510203649
 20
44.000000000000043
 30
0.0
 11
-53.499614510203649
 21
60.029217766586058
 31
0.0
  0
LINE
  5
1A0
  8
0
 62
     0
 10
53.500385489796251
 20
44.000000000000043
 30
0.0
 11
53.500385489796251
 21
60.029217766586058
 31
0.0
  0
LINE
  5
1A1
  8
0
 62
     0
 10
-53.499614510203649
 20
56.029217766586058
 30
0.0
 11
53.500385489796251
 21
56.029217766586058
 31
0.0
  0
INSERT
  5
1A2
  8
0
 62
     0
  2
_OBLIQUE
 10
-53.499614510203649
 20
56.029217766586058
 30
0.0
 41
4.0
 42
4.0
 43
4.0
 50
180.0
  0
INSERT
  5
1A3
  8
0
 62
     0
  2
_OBLIQUE
 10
53.500385489796251
 20
56.029217766586058
 30
0.0
 41
4.0
 42
4.0
 43
4.0
  0
INSERT
  5
1A4
  8
0
  2
*U10
 10
0.0
 20
0.0
 30
0.0
  0
POINT
  5
1A5
  8
DEFPOINTS
 62
     0
 10
-53.499614510203649
 20
40.000000000000043
 30
0.0
  0
POINT
  5
1A6
  8
DEFPOINTS
 62
     0
 10
53.500385489796251
 20
40.000000000000043
 30
0.0
  0
POINT
  5
1A7
  8
DEFPOINTS
 62
     0
 10
53.500385489796251
 20
56.029217766586058
 30
0.0
  0
ENDBLK
  5
10B
  8
0
  0
BLOCK
  8
0
  2
DIMBLOCK3-REF__LEVEL
 70
     0
 10
0.0
 20
0.0
 30
0.0
  3
DIMBLOCK3-REF__LEVEL
  1

  0
LINE
  5
196
  8
0
 62
     0
 10
-57.499614510203671
 20
40.000000000000043
 30
0.0
 11
-75.987789263513761
 21
40.000000000000043
 31
0.0
  0
LINE
  5
197
  8
0
 62
     0
 10
-57.499614510203664
 20
-235.0
 30
0.0
 11
-75.987789263513832
 21
-235.0
 31
0.0
  0
LINE
  5
198
  8
0
 62
     0
 10
-71.987789263513761
 20
40.000000000000043
 30
0.0
 11
-71.987789263513832
 21
-235.0
 31
0.0
  0
INSERT
  5
199
  8
0
 62
     0
  2
_OBLIQUE
 10
-71.987789263513761
 20
40.000000000000043
 30
0.0
 41
4.0
 42
4.0
 43
4.0
 50
90.0
  0
INSERT
  5
19A
  8
0
 62
     0
  2
_OBLIQUE
 10
-71.987789263513832
 20
-235.0
 30
0.0
 41
4.0
 42
4.0
 43
4.0
 50
270.0
  0
INSERT
  5
19B
  8
0
  2
*U9
 10
0.0
 20
0.0
 30
0.0
  0
POINT
  5
19C
  8
DEFPOINTS
 62
     0
 10
-53.499614510203671
 20
40.000000000000043
 30
0.0
  0
POINT
  5
19D
  8
DEFPOINTS
 62
     0
 10
-53.499614510203664
 20
-235.0
 30
0.0
  0
POINT
  5
19E
  8
DEFPOINTS
 62
     0
 10
-71.987789263513832
 20
-235.0
 30
0.0
  0
ENDBLK
  5
125
  8
0
  0
BLOCK
  8
0
  2
DIMBLOCK4-REF__LEVEL
 70
     0
 10
0.0
 20
0.0
 30
0.0
  3
DIMBLOCK4-REF__LEVEL
  1

  0
LINE
  5
18D
  8
0
 62
     0
 10
92.758616323231436
 20
-235.0
 30
0.0
 11
95.587043447977578
 21
-235.0
 31
0.0
  0
LINE
  5
18E
  8
0
 62
     0
 10
92.758616323231436
 20
-9.9999999999999964
 30
0.0
 11
95.587043447977635
 21
-9.9999999999999964
 31
0.0
  0
LINE
  5
18F
  8
0
 62
     0
 10
91.587043447977578
 20
-235.0
 30
0.0
 11
91.587043447977635
 21
-9.9999999999999947
 31
0.0
  0
INSERT
  5
190
  8
0
 62
     0
  2
_OBLIQUE
 10
91.587043447977578
 20
-235.0
 30
0.0
 41
4.0
 42
4.0
 43
4.0
 50
270.0
  0
INSERT
  5
191
  8
0
 62
     0
  2
_OBLIQUE
 10
91.587043447977635
 20
-9.9999999999999947
 30
0.0
 41
4.0
 42
4.0
 43
4.0
 50
90.0
  0
INSERT
  5
192
  8
0
  2
*U8
 10
0.0
 20
0.0
 30
0.0
  0
POINT
  5
193
  8
DEFPOINTS
 62
     0
 10
88.758616323231436
 20
-235.0
 30
0.0
  0
POINT
  5
194
  8
DEFPOINTS
 62
     0
 10
88.758616323231436
 20
-9.9999999999999947
 30
0.0
  0
POINT
  5
195
  8
DEFPOINTS
 62
     0
 10
91.587043447977635
 20
-9.9999999999999947
 30
0.0
  0
ENDBLK
  5
13F
  8
0
  0
BLOCK
  8
0
  2
DIMBLOCK5-REF__LEVEL
 70
     0
 10
0.0
 20
0.0
 30
0.0
  3
DIMBLOCK5-REF__LEVEL
  1

  0
LINE
  5
184
  8
0
 62
     0
 10
-329.22959116399443
 20
429.5528047255047
 30
0.0
 11
-359.10010872419298
 21
429.55257759282978
 31
0.0
  0
LINE
  5
185
  8
0
 62
     0
 10
-329.22807038234441
 20
229.55280472550581
 30
0.0
 11
-359.09858794254291
 21
229.552577592831
 31
0.0
  0
LINE
  5
186
  8
0
 62
     0
 10
-355.10010872430871
 20
429.55260800846281
 30
0.0
 11
-355.09858794265853
 21
229.55260800846389
 31
0.0
  0
INSERT
  5
187
  8
0
 62
     0
  2
_OBLIQUE
 10
-355.10010872430871
 20
429.55260800846281
 30
0.0
 41
4.0
 42
4.0
 43
4.0
 50
90.000435671850553
  0
INSERT
  5
188
  8
0
 62
     0
  2
_OBLIQUE
 10
-355.09858794265853
 20
229.55260800846389
 30
0.0
 41
4.0
 42
4.0
 43
4.0
 50
270.00043567185048
  0
INSERT
  5
189
  8
0
  2
*U7
 10
0.0
 20
0.0
 30
0.0
  0
POINT
  5
18A
  8
DEFPOINTS
 62
     0
 10
-325.22959116410999
 20
429.55283514113779
 30
0.0
  0
POINT
  5
18B
  8
DEFPOINTS
 62
     0
 10
-325.22807038245998
 20
229.5528351411389
 30
0.0
  0
POINT
  5
18C
  8
DEFPOINTS
 62
     0
 10
-355.09858794265853
 20
229.55260800846389
 30
0.0
  0
ENDBLK
  5
159
  8
0
  0
BLOCK
  8
0
  2
*U7
 70
     1
 10
0.0
 20
0.0
 30
0.0
  3
*U7
  1

  0
TEXT
  5
25E
  8
0
 62
     0
 10
-350.9866895877559
 20
336.35350787118091
 30
0.0
 40
5.9011976047904202
  1
200
 50
270.00043567185048
  7
ARIAL
  0
ENDBLK
  5
260
  8
0
  0
BLOCK
  8
0
  2
*U8
 70
     1
 10
0.0
 20
0.0
 30
0.0
  3
*U8
  1

  0
TEXT
  5
262
  8
0
 62
     0
 10
87.474332988950252
 20
-129.33307157853449
 30
0.0
 40
5.9011976047904202
  1
225
 50
90.0
  7
ARIAL
  0
ENDBLK
  5
264
  8
0
  0
BLOCK
  8
0
  2
*U9
 70
     1
 10
0.0
 20
0.0
 30
0.0
  3
*U9
  1

  0
TEXT
  5
266
  8
0
 62
     0
 10
-76.100499722541144
 20
-104.3330715785346
 30
0.0
 40
5.9011976047904202
  1
275
 50
90.0
  7
ARIAL
  0
ENDBLK
  5
268
  8
0
  0
BLOCK
  8
0
  2
*U10
 70
     1
 10
0.0
 20
0.0
 30
0.0
  3
*U10
  1

  0
TEXT
  5
26A
  8
0
 62
     0
 10
-7.138614477526894
 20
60.141928225613427
 30
0.0
 40
5.9011976047904202
  1
107
  7
ARIAL
  0
ENDBLK
  5
26C
  8
0
  0
BLOCK
  8
0
  2
*U11
 70
     1
 10
0.0
 20
0.0
 30
0.0
  3
*U11
  1

  0
TEXT
  5
26E
  8
0
 62
     0
 10
-4.4496649550166714
 20
-310.05035713300788
 30
0.0
 40
5.9011976047904202
  1
47
  7
ARIAL
  0
ENDBLK
  5
270
  8
0
  0
ENDSEC
  0
SECTION
  2
ENTITIES
  0
LINE
  5
88
  8
0
 10
53.500385489796251
 20
40.000000000000043
 30
0.0
 11
53.500385489796251
 21
-235.0
 31
0.0
1001
REVIT
1002
{
1070
     1
1000
339823
1002
}
1002
{
1070
     2
1000
-2002000
1002
}
  0
LINE
  5
89
  8
0
 10
53.500385489796251
 20
-235.0
 30
0.0
 11
43.500385489796251
 21
-235.0
 31
0.0
1001
REVIT
1002
{
1070
     1
1000
339824
1002
}
1002
{
1070
     2
1000
-2002000
1002
}
  0
LINE
  5
8A
  8
0
 10
43.500385489796251
 20
-235.0
 30
0.0
 11
43.500385489796251
 21
30.000000000000082
 31
0.0
1001
REVIT
1002
{
1070
     1
1000
339825
1002
}
1002
{
1070
     2
1000
-2002000
1002
}
  0
LINE
  5
8B
  8
0
 10
43.50038548979628
 20
30.000000000000071
 30
0.0
 11
53.500385489796258
 21
40.000000000000043
 31
0.0
1001
REVIT
1002
{
1070
     1
1000
339826
1002
}
1002
{
1070
     2
1000
-2002000
1002
}
  0
LINE
  5
8C
  8
0
 10
53.500385489796258
 20
40.000000000000043
 30
0.0
 11
-53.499614510203678
 21
40.000000000000043
 31
0.0
1001
REVIT
1002
{
1070
     1
1000
339827
1002
}
1002
{
1070
     2
1000
-2002000
1002
}
  0
LINE
  5
8D
  8
0
 10
-53.499614510203664
 20
40.000000000000043
 30
0.0
 11
-53.499614510203664
 21
-235.0
 31
0.0
1001
REVIT
1002
{
1070
     1
1000
339828
1002
}
1002
{
1070
     2
1000
-2002000
1002
}
  0
LINE
  5
8E
  8
0
 10
-53.499614510203664
 20
-235.0
 30
0.0
 11
-43.499614510203649
 21
-235.0
 31
0.0
1001
REVIT
1002
{
1070
     1
1000
339829
1002
}
1002
{
1070
     2
1000
-2002000
1002
}
  0
LINE
  5
8F
  8
0
 10
-43.499614510203649
 20
-235.0
 30
0.0
 11
-43.499614510203649
 21
30.000000000000082
 31
0.0
1001
REVIT
1002
{
1070
     1
1000
339830
1002
}
1002
{
1070
     2
1000
-2002000
1002
}
  0
LINE
  5
90
  8
0
 10
-43.499614510203742
 20
30.000000000000071
 30
0.0
 11
43.500385489796273
 21
30.000000000000071
 31
0.0
1001
REVIT
1002
{
1070
     1
1000
339831
1002
}
1002
{
1070
     2
1000
-2002000
1002
}
  0
LINE
  5
91
  8
0
 10
43.500385489796251
 20
-235.0
 30
0.0
 11
23.500385489796258
 21
-235.0
 31
0.0
1001
REVIT
1002
{
1070
     1
1000
339832
1002
}
1002
{
1070
     2
1000
-2002000
1002
}
  0
LINE
  5
92
  8
0
 10
23.500385489796258
 20
-235.0
 30
0.0
 11
23.500385489796258
 21
-10.00000000000003
 31
0.0
1001
REVIT
1002
{
1070
     1
1000
339833
1002
}
1002
{
1070
     2
1000
-2002000
1002
}
1002
{
1070
     3
1000
206783
1002
}
  0
LINE
  5
93
  8
0
 10
23.500385489796258
 20
-10.0
 30
0.0
 11
-23.499614510203671
 21
-10.0
 31
0.0
1001
REVIT
1002
{
1070
     1
1000
339834
1002
}
1002
{
1070
     2
1000
-2002000
1002
}
1002
{
1070
     3
1000
206783
1002
}
  0
LINE
  5
94
  8
0
 10
-23.49961451020366
 20
-10.0
 30
0.0
 11
-23.49961451020366
 21
-235.0
 31
0.0
1001
REVIT
1002
{
1070
     1
1000
339835
1002
}
1002
{
1070
     2
1000
-2002000
1002
}
1002
{
1070
     3
1000
206783
1002
}
  0
LINE
  5
95
  8
0
 10
-23.49961451020366
 20
-235.0
 30
0.0
 11
-43.499614510203649
 21
-235.0
 31
0.0
1001
REVIT
1002
{
1070
     1
1000
339836
1002
}
1002
{
1070
     2
1000
-2002000
1002
}
  0
LINE
  5
96
  8
0
 10
-43.499614510203742
 20
30.000000000000071
 30
0.0
 11
-53.499614510203671
 21
40.000000000000043
 31
0.0
1001
REVIT
1002
{
1070
     1
1000
339837
1002
}
1002
{
1070
     2
1000
-2002000
1002
}
  0
LINE
  5
97
  8
0
 10
-346.99961451020368
 20
30.00000000000006
 30
0.0
 11
-346.99961451020368
 21
40.00000000000005
 31
0.0
1001
REVIT
1002
{
1070
     1
1000
339838
1002
}
1002
{
1070
     2
1000
-2002000
1002
}
1002
{
1070
     3
1000
206783
1002
}
  0
LINE
  5
98
  8
0
 10
-346.99961451020368
 20
40.00000000000005
 30
0.0
 11
-349.99961451020368
 21
40.00000000000005
 31
0.0
1001
REVIT
1002
{
1070
     1
1000
339839
1002
}
1002
{
1070
     2
1000
-2002000
1002
}
1002
{
1070
     3
1000
206783
1002
}
  0
LINE
  5
99
  8
0
 10
-349.99961451020368
 20
40.00000000000005
 30
0.0
 11
-349.99961451020368
 21
-10.0
 31
0.0
1001
REVIT
1002
{
1070
     1
1000
339840
1002
}
1002
{
1070
     2
1000
-2002000
1002
}
1002
{
1070
     3
1000
206783
1002
}
  0
LINE
  5
9A
  8
0
 10
-349.99961451020368
 20
-10.0
 30
0.0
 11
-279.99961451020368
 21
-10.0
 31
0.0
1001
REVIT
1002
{
1070
     1
1000
339841
1002
}
1002
{
1070
     2
1000
-2002000
1002
}
1002
{
1070
     3
1000
206783
1002
}
  0
LINE
  5
9B
  8
0
 10
-279.99961451020368
 20
-10.0
 30
0.0
 11
-279.99961451020368
 21
-235.0
 31
0.0
1001
REVIT
1002
{
1070
     1
1000
339842
1002
}
1002
{
1070
     2
1000
-2002000
1002
}
  0
LINE
  5
9C
  8
0
 10
-279.99961451020368
 20
-235.0
 30
0.0
 11
-349.99961451020368
 21
-235.0
 31
0.0
1001
REVIT
1002
{
1070
     1
1000
339843
1002
}
1002
{
1070
     2
1000
-2002000
1002
}
  0
LINE
  5
9D
  8
0
 10
-349.99961451020368
 20
-235.0
 30
0.0
 11
-349.99961451020368
 21
-10.00000000000003
 31
0.0
1001
REVIT
1002
{
1070
     1
1000
339844
1002
}
1002
{
1070
     2
1000
-2002000
1002
}
  0
LINE
  5
9E
  8
0
 10
-200.58120474689699
 20
568.11715565765076
 30
0.0
 11
-122.7994588163769
 21
523.20984370662575
 31
0.0
1001
REVIT
1002
{
1070
     1
1000
339845
1002
}
1002
{
1070
     2
1000
-2002000
1002
}
  0
LINE
  5
9F
  8
0
 10
-122.7994588163769
 20
523.20984370662575
 30
0.0
 11
-120.6781384728172
 21
524.43458857801727
 31
0.0
1001
REVIT
1002
{
1070
     1
1000
339846
1002
}
1002
{
1070
     2
1000
-2002000
1002
}
  0
LINE
  5
A0
  8
0
 10
-120.6781384728172
 20
524.43458857801727
 30
0.0
 11
-198.4598844033373
 21
569.34190052904228
 31
0.0
1001
REVIT
1002
{
1070
     1
1000
339847
1002
}
1002
{
1070
     2
1000
-2002000
1002
}
  0
LINE
  5
A1
  8
0
 10
-122.7994588163768
 20
523.20984370662575
 30
0.0
 11
-122.7994588163768
 21
247.38413663654549
 31
0.0
1001
REVIT
1002
{
1070
     1
1000
339848
1002
}
1002
{
1070
     2
1000
-2002000
1002
}
  0
LINE
  5
A2
  8
0
 10
-122.7994588163768
 20
247.38413663654549
 30
0.0
 11
-129.8705266282424
 21
251.46661954118409
 31
0.0
1001
REVIT
1002
{
1070
     1
1000
339849
1002
}
1002
{
1070
     2
1000
-2002000
1002
}
  0
LINE
  5
A3
  8
0
 10
-129.8705266282424
 20
251.46661954118409
 30
0.0
 11
-129.8705266282424
 21
519.12736080198704
 31
0.0
1001
REVIT
1002
{
1070
     1
1000
339850
1002
}
1002
{
1070
     2
1000
-2002000
1002
}
  0
LINE
  5
A4
  8
0
 10
-129.87052662824249
 20
519.12736080198715
 30
0.0
 11
-193.51013693503151
 21
555.86970694373485
 31
0.0
1001
REVIT
1002
{
1070
     1
1000
339851
1002
}
1002
{
1070
     2
1000
-2002000
1002
}
  0
LINE
  5
A5
  8
0
 10
-193.51013693503151
 20
555.86970694373485
 30
0.0
 11
-193.51013693503151
 21
506.87991208807102
 31
0.0
1001
REVIT
1002
{
1070
     1
1000
339852
1002
}
1002
{
1070
     2
1000
-2002000
1002
}
  0
LINE
  5
A6
  8
0
 10
-200.58120474689699
 20
502.79742918343243
 30
0.0
 11
-200.58120474689699
 21
568.11715565765076
 31
0.0
1001
REVIT
1002
{
1070
     1
1000
339853
1002
}
1002
{
1070
     2
1000
-2002000
1002
}
  0
LINE
  5
A7
  8
0
 10
-200.58120474689699
 20
568.11715565765076
 30
0.0
 11
-198.4598844033373
 21
569.34190052904228
 31
0.0
1001
REVIT
1002
{
1070
     1
1000
339854
1002
}
1002
{
1070
     2
1000
-2002000
1002
}
  0
LINE
  5
A8
  8
0
 10
-198.4598844033373
 20
569.34190052904228
 30
0.0
 11
-120.6781384728172
 21
524.43458857801727
 31
0.0
1001
REVIT
1002
{
1070
     1
1000
339855
1002
}
1002
{
1070
     2
1000
-2002000
1002
}
  0
LINE
  5
A9
  8
0
 10
-120.6781384728171
 20
248.60888150793701
 30
0.0
 11
-122.7994588163768
 21
247.38413663654549
 31
0.0
1001
REVIT
1002
{
1070
     1
1000
339856
1002
}
1002
{
1070
     2
1000
-2002000
1002
}
  0
LINE
  5
AA
  8
0
 10
-120.6781384728171
 20
524.4345885780175
 30
0.0
 11
-120.6781384728171
 21
248.60888150793701
 31
0.0
1001
REVIT
1002
{
1070
     1
1000
339857
1002
}
1002
{
1070
     2
1000
-2002000
1002
}
  0
LINE
  5
AB
  8
0
 10
-129.8705266282424
 20
253.9161092839673
 30
0.0
 11
-141.89134190841361
 21
260.85633022185289
 31
0.0
1001
REVIT
1002
{
1070
     1
1000
339858
1002
}
1002
{
1070
     2
1000
-2002000
1002
}
  0
LINE
  5
AC
  8
0
 10
-141.89134190841361
 20
495.85720824554681
 30
0.0
 11
-177.24668096774059
 21
516.26962276873985
 31
0.0
1001
REVIT
1002
{
1070
     1
1000
339859
1002
}
1002
{
1070
     2
1000
-2002000
1002
}
  0
LINE
  5
AD
  8
0
 10
-177.2466809677407
 20
516.26962276873985
 30
0.0
 11
-141.89134190841361
 21
495.85720824554681
 31
0.0
1001
REVIT
1002
{
1070
     1
1000
339860
1002
}
1002
{
1070
     2
1000
-2002000
1002
}
  0
LINE
  5
AE
  8
0
 10
-141.89134190841361
 20
260.85633022185289
 30
0.0
 11
-191.38881659147211
 21
232.2789498893826
 31
0.0
1001
REVIT
1002
{
1070
     1
1000
339861
1002
}
1002
{
1070
     2
1000
-2002000
1002
}
  0
LINE
  5
AF
  8
0
 10
-191.38881659147211
 20
467.27982791307647
 30
0.0
 11
-191.38881659147211
 21
232.2789498893826
 31
0.0
1001
REVIT
1002
{
1070
     1
1000
339862
1002
}
1002
{
1070
     2
1000
-2002000
1002
}
  0
LINE
  5
B0
  8
0
 10
-177.2466809677407
 20
516.26962276873985
 30
0.0
 11
-226.7441556507994
 21
487.6922424362694
 31
0.0
1001
REVIT
1002
{
1070
     1
1000
339863
1002
}
1002
{
1070
     2
1000
-2002000
1002
}
  0
LINE
  5
B1
  8
0
 10
-226.7441556507994
 20
487.69224243626979
 30
0.0
 11
-191.38881659147211
 21
467.27982791307647
 31
0.0
1001
REVIT
1002
{
1070
     1
1000
339864
1002
}
1002
{
1070
     2
1000
-2002000
1002
}
  0
LINE
  5
B2
  8
0
 10
-141.89134190841361
 20
495.85720824554681
 30
0.0
 11
-141.89134190841361
 21
260.85633022185289
 31
0.0
1001
REVIT
1002
{
1070
     1
1000
339865
1002
}
1002
{
1070
     2
1000
-2002000
1002
}
  0
LINE
  5
B3
  8
0
 10
-191.38881659147211
 20
273.10377893576867
 30
0.0
 11
-226.7441556507994
 21
252.69136441257569
 31
0.0
1001
REVIT
1002
{
1070
     1
1000
339866
1002
}
1002
{
1070
     2
1000
-2002000
1002
}
  0
LINE
  5
B4
  8
0
 10
-226.7441556507994
 20
252.69136441257569
 30
0.0
 11
-226.7441556507994
 21
487.6922424362694
 31
0.0
1001
REVIT
1002
{
1070
     1
1000
339867
1002
}
1002
{
1070
     2
1000
-2002000
1002
}
  0
LINE
  5
B7
  8
0
 10
-76.546273610624667
 20
373.12466460068941
 30
0.0
 11
-76.546273610624667
 21
573.13021547360381
 31
0.0
1001
REVIT
1002
{
1070
     1
1000
339868
1002
}
1002
{
1070
     2
1000
-2002000
1002
}
1002
{
1070
     3
1000
-2009514
1002
}
  0
LINE
  5
B8
  8
0
 10
-76.546273610624624
 20
573.13065449519831
 30
0.0
 11
-42.298420473198007
 21
553.35720824554357
 31
0.0
1001
REVIT
1002
{
1070
     1
1000
339869
1002
}
1002
{
1070
     2
1000
-2002000
1002
}
1002
{
1070
     3
1000
-2009514
1002
}
  0
LINE
  5
B9
  8
0
 10
-42.298420473198192
 20
553.3572082455438
 30
0.0
 11
-290.98173802668367
 21
409.77982791307778
 31
0.0
1001
REVIT
1002
{
1070
     1
1000
339870
1002
}
1002
{
1070
     2
1000
-2002000
1002
}
1002
{
1070
     3
1000
-2009514
1002
}
  0
LINE
  5
BA
  8
0
 10
-290.98173802668259
 20
409.77982791307829
 30
0.0
 11
-290.98173802668259
 21
209.7789498893849
 31
0.0
1001
REVIT
1002
{
1070
     1
1000
339871
1002
}
1002
{
1070
     2
1000
-2002000
1002
}
1002
{
1070
     3
1000
-2009514
1002
}
  0
LINE
  5
BB
  8
0
 10
-325.22807038245992
 20
229.55283514113879
 30
0.0
 11
-76.545893410991454
 21
373.12955695827031
 31
0.0
1001
REVIT
1002
{
1070
     1
1000
339872
1002
}
1002
{
1070
     2
1000
-2002000
1002
}
1002
{
1070
     3
1000
-2009514
1002
}
  0
LINE
  5
BC
  8
0
 10
-290.98173802668367
 20
409.77982791307778
 30
0.0
 11
-325.22959116410999
 21
429.55283514113779
 31
0.0
1001
REVIT
1002
{
1070
     1
1000
339873
1002
}
1002
{
1070
     2
1000
-2002000
1002
}
1002
{
1070
     3
1000
-2009514
1002
}
  0
LINE
  5
BD
  8
0
 10
-325.22807038245992
 20
429.55371316483291
 30
0.0
 11
-76.546273610624624
 21
573.13021547360381
 31
0.0
1001
REVIT
1002
{
1070
     1
1000
339874
1002
}
1002
{
1070
     2
1000
-2002000
1002
}
1002
{
1070
     3
1000
-2009514
1002
}
  0
LINE
  5
BE
  8
0
 10
-325.22807038245992
 20
229.5528351411389
 30
0.0
 11
-325.22807038245992
 21
429.55371316483291
 31
0.0
1001
REVIT
1002
{
1070
     1
1000
339875
1002
}
1002
{
1070
     2
1000
-2002000
1002
}
1002
{
1070
     3
1000
-2009514
1002
}
  0
LINE
  5
BF
  8
0
 10
-42.298420473198007
 20
553.35720824554357
 30
0.0
 11
-42.298420473198007
 21
353.35633022184982
 31
0.0
1001
REVIT
1002
{
1070
     1
1000
339876
1002
}
1002
{
1070
     2
1000
-2002000
1002
}
1002
{
1070
     3
1000
-2009514
1002
}
  0
LINE
  5
C0
  8
0
 10
-42.29842047319805
 20
353.35633022184982
 30
0.0
 11
-191.38881659147211
 21
267.27894988938118
 31
0.0
1001
REVIT
1002
{
1070
     1
1000
339877
1002
}
1002
{
1070
     2
1000
-2002000
1002
}
1002
{
1070
     3
1000
-2009514
1002
}
  0
LINE
  5
C1
  8
0
 10
-193.51013693503151
 20
555.86970694373485
 30
0.0
 11
-200.5812047468969
 21
568.11715565765064
 31
0.0
1001
REVIT
1002
{
1070
     1
1000
339878
1002
}
1002
{
1070
     2
1000
-2002000
1002
}
  0
LINE
  5
C2
  8
0
 10
-129.87052662824249
 20
519.12736080198715
 30
0.0
 11
-122.7994588163769
 21
523.20984370662575
 31
0.0
1001
REVIT
1002
{
1070
     1
1000
339879
1002
}
1002
{
1070
     2
1000
-2002000
1002
}
  0
LINE
  5
C3
  8
0
 10
-76.545893410991425
 20
373.12955695827031
 30
0.0
 11
-42.298420473198057
 21
353.35633022184982
 31
0.0
1001
REVIT
1002
{
1070
     1
1000
339880
1002
}
1002
{
1070
     2
1000
-2002000
1002
}
1002
{
1070
     3
1000
-2009514
1002
}
  0
LINE
  5
C4
  8
0
 10
-290.98097763585861
 20
209.7793889012313
 30
0.0
 11
-325.22883077328493
 21
229.5523961292914
 31
0.0
1001
REVIT
1002
{
1070
     1
1000
339881
1002
}
1002
{
1070
     2
1000
-2002000
1002
}
1002
{
1070
     3
1000
-2009514
1002
}
  0
LINE
  5
C5
  8
0
 10
-83.867735997265115
 20
229.35616370016439
 30
0.0
 11
-106.46408060427051
 21
213.53403287035491
 31
0.0
1001
REVIT
1002
{
1070
     1
1000
339882
1002
}
1002
{
1070
     2
1000
-2002000
1002
}
  0
LINE
  5
C6
  8
0
 10
-83.867735997265115
 20
279.35554068828009
 30
0.0
 11
-83.867735997265115
 21
229.35616370016439
 31
0.0
1001
REVIT
1002
{
1070
     1
1000
339883
1002
}
1002
{
1070
     2
1000
-2002000
1002
}
  0
LINE
  5
C7
  8
0
 10
-83.8677359972651
 20
229.35554068828009
 30
0.0
 11
-120.6781384728171
 21
250.6080364665186
 31
0.0
1001
REVIT
1002
{
1070
     1
1000
339884
1002
}
1002
{
1070
     2
1000
-2002000
1002
}
  0
LINE
  5
C8
  8
0
 10
-83.867735997265115
 20
279.35554068828009
 30
0.0
 11
-120.6781384728171
 21
300.60803646651851
 31
0.0
1001
REVIT
1002
{
1070
     1
1000
339885
1002
}
1002
{
1070
     2
1000
-2002000
1002
}
  0
LINE
  5
C9
  8
0
 10
-106.46408060427051
 20
213.53403287035491
 30
0.0
 11
-106.46408060427061
 21
178.53465588223921
 31
0.0
1001
REVIT
1002
{
1070
     1
1000
339886
1002
}
1002
{
1070
     2
1000
-2002000
1002
}
  0
LINE
  5
CA
  8
0
 10
-106.46408060427061
 20
178.53465588223921
 30
0.0
 11
-109.9996145102034
 21
174.99912197630641
 31
0.0
1001
REVIT
1002
{
1070
     1
1000
339887
1002
}
1002
{
1070
     2
1000
-2002000
1002
}
  0
LINE
  5
CB
  8
0
 10
-106.46408060427061
 20
178.53465588223921
 30
0.0
 11
-269.27720231047778
 21
272.53485552692138
 31
0.0
1001
REVIT
1002
{
1070
     1
1000
339888
1002
}
1002
{
1070
     2
1000
-2002000
1002
}
  0
LINE
  5
CC
  8
0
 10
-109.9996145102034
 20
174.99912197630641
 30
0.0
 11
-272.8127362164106
 21
268.99932162098872
 31
0.0
1001
REVIT
1002
{
1070
     1
1000
339889
1002
}
1002
{
1070
     2
1000
-2002000
1002
}
  0
LINE
  5
CD
  8
0
 10
-246.6797668050705
 20
373.35683123136511
 30
0.0
 11
-246.6797668050705
 21
323.35745424324932
 31
0.0
1001
REVIT
1002
{
1070
     1
1000
339890
1002
}
1002
{
1070
     2
1000
-2002000
1002
}
  0
LINE
  5
CE
  8
0
 10
-246.6797668050705
 20
323.35745424324932
 30
0.0
 11
-226.7441556507994
 21
311.84762377687139
 31
0.0
1001
REVIT
1002
{
1070
     1
1000
339891
1002
}
1002
{
1070
     2
1000
-2002000
1002
}
  0
LINE
  5
CF
  8
0
 10
-246.6797668050705
 20
373.35683123136511
 30
0.0
 11
-226.7441556507994
 21
361.84700076498729
 31
0.0
1001
REVIT
1002
{
1070
     1
1000
339892
1002
}
1002
{
1070
     2
1000
-2002000
1002
}
  0
LINE
  5
D0
  8
0
 10
-106.46408060427051
 20
213.53403287035491
 30
0.0
 11
-165.16002292818041
 21
247.4221509714032
 31
0.0
1001
REVIT
1002
{
1070
     1
1000
339893
1002
}
1002
{
1070
     2
1000
-2002000
1002
}
  0
LINE
  5
D1
  8
0
 10
-246.68085770347389
 20
323.35636334484479
 30
0.0
 11
-269.27720231047942
 21
307.53423251503528
 31
0.0
1001
REVIT
1002
{
1070
     1
1000
339894
1002
}
1002
{
1070
     2
1000
-2002000
1002
}
  0
LINE
  5
D2
  8
0
 10
-269.27720231047942
 20
307.53423251503528
 30
0.0
 11
-269.27720231047942
 21
272.5348555269224
 31
0.0
1001
REVIT
1002
{
1070
     1
1000
339895
1002
}
1002
{
1070
     2
1000
-2002000
1002
}
  0
LINE
  5
D3
  8
0
 10
-269.27720231047761
 20
272.53485552692138
 30
0.0
 11
-272.81273621641049
 21
268.99932162098872
 31
0.0
1001
REVIT
1002
{
1070
     1
1000
339896
1002
}
1002
{
1070
     2
1000
-2002000
1002
}
  0
LINE
  5
D4
  8
0
 10
-226.7441556507994
 20
282.97776657661689
 30
0.0
 11
-269.27720231047721
 21
307.53423251503688
 31
0.0
1001
REVIT
1002
{
1070
     1
1000
339897
1002
}
1002
{
1070
     2
1000
-2002000
1002
}
  0
LINE
  5
D5
  8
0
 10
-191.38881659147211
 20
262.56535205342379
 30
0.0
 11
-200.5153619875077
 21
267.83456549459629
 31
0.0
1001
REVIT
1002
{
1070
     1
1000
339898
1002
}
1002
{
1070
     2
1000
-2002000
1002
}
  0
LINE
  5
D6
  8
0
 10
-191.38881659147211
 20
267.27894988938118
 30
0.0
 11
-290.98173802668259
 21
209.77894988938439
 31
0.0
1001
REVIT
1002
{
1070
     1
1000
339899
1002
}
1002
{
1070
     2
1000
-2002000
1002
}
1002
{
1070
     3
1000
-2009514
1002
}
  0
LINE
  5
D7
  8
0
  6
DASH
 10
-325.22959116410999
 20
429.55283514113779
 30
0.0
 11
-290.98173802668259
 21
209.77894988938451
 31
0.0
1001
REVIT
1002
{
1070
     1
1000
339900
1002
}
1002
{
1070
     2
1000
-2002000
1002
}
1002
{
1070
     3
1000
291475
1002
}
  0
LINE
  5
D8
  8
0
  6
DASH
 10
-290.98173802668367
 20
409.77982791307772
 30
0.0
 11
-325.22807038245992
 21
229.55283514113879
 31
0.0
1001
REVIT
1002
{
1070
     1
1000
339901
1002
}
1002
{
1070
     2
1000
-2002000
1002
}
1002
{
1070
     3
1000
291475
1002
}
  0
LINE
  5
D9
  8
0
  6
DASH
 10
-76.546273610624695
 20
573.13021547360381
 30
0.0
 11
-42.298420473197922
 21
353.35633022184982
 31
0.0
1001
REVIT
1002
{
1070
     1
1000
339902
1002
}
1002
{
1070
     2
1000
-2002000
1002
}
1002
{
1070
     3
1000
291475
1002
}
  0
LINE
  5
DA
  8
0
  6
DASH
 10
-42.298420473198192
 20
553.3572082455438
 30
0.0
 11
-76.546273610624723
 21
373.12466460068822
 31
0.0
1001
REVIT
1002
{
1070
     1
1000
339903
1002
}
1002
{
1070
     2
1000
-2002000
1002
}
1002
{
1070
     3
1000
291475
1002
}
  0
ENDSEC
  0
EOF
