  0
SECTION
  2
HEADER
  9
$ACADVER
  1
AC1009
  9
$INSBASE
 10
0.0
 20
0.0
 30
0.0
  9
$EXTMIN
 10
-349.99961451020368
 20
-316.05035713300799
 30
0.0
  9
$EXTMAX
 10
76.33590372520608
 20
598.13065449519854
 30
0.0
  9
$LIMMIN
 10
0.0
 20
0.0
  9
$LIMMAX
 10
12.0
 20
9.0
  9
$ORTHOMODE
 70
     0
  9
$REGENMODE
 70
     1
  9
$FILLMODE
 70
     1
  9
$QTEXTMODE
 70
     0
  9
$MIRRTEXT
 70
     0
  9
$DRAGMODE
 70
     2
  9
$LTSCALE
 40
1.0
  9
$OSMODE
 70
   127
  9
$ATTMODE
 70
     1
  9
$TEXTSIZE
 40
0.2
  9
$TRACEWID
 40
0.05
  9
$TEXTSTYLE
  7
STANDARD
  9
$CLAYER
  8
0
  9
$CELTYPE
  6
BYLAYER
  9
$CECOLOR
 62
   256
  9
$DIMSCALE
 40
1.0
  9
$DIMASZ
 40
0.18
  9
$DIMEXO
 40
0.0625
  9
$DIMDLI
 40
0.38
  9
$DIMRND
 40
0.0
  9
$DIMDLE
 40
0.0
  9
$DIMEXE
 40
0.18
  9
$DIMTP
 40
0.0
  9
$DIMTM
 40
0.0
  9
$DIMTXT
 40
0.18
  9
$DIMCEN
 40
0.09
  9
$DIMTSZ
 40
0.0
  9
$DIMTOL
 70
     0
  9
$DIMLIM
 70
     0
  9
$DIMTIH
 70
     1
  9
$DIMTOH
 70
     1
  9
$DIMSE1
 70
     0
  9
$DIMSE2
 70
     0
  9
$DIMTAD
 70
     0
  9
$DIMZIN
 70
     0
  9
$DIMBLK
  1

  9
$DIMASO
 70
     1
  9
$DIMSHO
 70
     1
  9
$DIMPOST
  1

  9
$DIMAPOST
  1

  9
$DIMALT
 70
     0
  9
$DIMALTD
 70
     2
  9
$DIMALTF
 40
25.399999999999999
  9
$DIMLFAC
 40
1.0
  9
$DIMTOFL
 70
     0
  9
$DIMTVP
 40
0.0
  9
$DIMTIX
 70
     0
  9
$DIMSOXD
 70
     0
  9
$DIMSAH
 70
     0
  9
$DIMBLK1
  1

  9
$DIMBLK2
  1

  9
$DIMSTYLE
  2
STANDARD
  9
$DIMCLRD
 70
     0
  9
$DIMCLRE
 70
     0
  9
$DIMCLRT
 70
     0
  9
$DIMTFAC
 40
1.0
  9
$DIMGAP
 40
0.09
  9
$LUNITS
 70
     2
  9
$LUPREC
 70
     4
  9
$SKETCHINC
 40
0.1
  9
$FILLETRAD
 40
0.0
  9
$AUNITS
 70
     0
  9
$AUPREC
 70
     0
  9
$MENU
  1
.
  9
$ELEVATION
 40
0.0
  9
$PELEVATION
 40
0.0
  9
$THICKNESS
 40
0.0
  9
$LIMCHECK
 70
     0
  9
$BLIPMODE
 70
     0
  9
$CHAMFERA
 40
0.0
  9
$CHAMFERB
 40
0.0
  9
$SKPOLY
 70
     0
  9
$TDCREATE
 40
2457375.5590898958
  9
$TDUPDATE
 40
2457378.9925394682
  9
$TDINDWG
 40
0.0001547454
  9
$TDUSRTIMER
 40
0.0001547454
  9
$USRTIMER
 70
     1
  9
$ANGBASE
 50
0.0
  9
$ANGDIR
 70
     0
  9
$PDMODE
 70
     0
  9
$PDSIZE
 40
0.0
  9
$PLINEWID
 40
0.0
  9
$COORDS
 70
     2
  9
$SPLFRAME
 70
     0
  9
$SPLINETYPE
 70
     6
  9
$SPLINESEGS
 70
     8
  9
$ATTDIA
 70
     0
  9
$ATTREQ
 70
     0
  9
$HANDLING
 70
     1
  9
$HANDSEED
  5
24B
  9
$SURFTAB1
 70
     6
  9
$SURFTAB2
 70
     6
  9
$SURFTYPE
 70
     6
  9
$SURFU
 70
     6
  9
$SURFV
 70
     6
  9
$UCSNAME
  2

  9
$UCSORG
 10
0.0
 20
0.0
 30
0.0
  9
$UCSXDIR
 10
1.0
 20
0.0
 30
0.0
  9
$UCSYDIR
 10
0.0
 20
1.0
 30
0.0
  9
$PUCSNAME
  2

  9
$PUCSORG
 10
0.0
 20
0.0
 30
0.0
  9
$PUCSXDIR
 10
1.0
 20
0.0
 30
0.0
  9
$PUCSYDIR
 10
0.0
 20
1.0
 30
0.0
  9
$USERI1
 70
     0
  9
$USERI2
 70
     0
  9
$USERI3
 70
     0
  9
$USERI4
 70
     0
  9
$USERI5
 70
     0
  9
$USERR1
 40
0.0
  9
$USERR2
 40
0.0
  9
$USERR3
 40
0.0
  9
$USERR4
 40
0.0
  9
$USERR5
 40
0.0
  9
$WORLDVIEW
 70
     1
  9
$SHADEDGE
 70
     3
  9
$SHADEDIF
 70
    70
  9
$TILEMODE
 70
     1
  9
$MAXACTVP
 70
    64
  9
$PLIMCHECK
 70
     0
  9
$PEXTMIN
 10
0.0
 20
0.0
 30
0.0
  9
$PEXTMAX
 10
0.0
 20
0.0
 30
0.0
  9
$PLIMMIN
 10
0.0
 20
0.0
  9
$PLIMMAX
 10
12.0
 20
9.0
  9
$UNITMODE
 70
     0
  9
$VISRETAIN
 70
     1
  9
$PLINEGEN
 70
     0
  9
$PSLTSCALE
 70
     1
  0
ENDSEC
  0
SECTION
  2
TABLES
  0
TABLE
  2
VPORT
 70
     1
  0
VPORT
  2
*ACTIVE
 70
     0
 10
0.0
 20
0.0
 11
1.0
 21
1.0
 12
665.46247207217175
 22
141.04014868109519
 13
0.0
 23
0.0
 14
1.0
 24
1.0
 15
0.0
 25
0.0
 16
0.0
 26
0.0
 36
1.0
 17
0.0
 27
0.0
 37
0.0
 40
758.68199863059124
 41
1.7244755244755241
 42
50.0
 43
0.0
 44
0.0
 50
0.0
 51
0.0
 71
     0
 72
  1000
 73
     1
 74
     3
 75
     0
 76
     0
 77
     0
 78
     0
  0
ENDTAB
  0
TABLE
  2
LTYPE
 70
     2
  0
LTYPE
  2
CONTINUOUS
 70
     0
  3
Solid line
 72
    65
 73
     0
 40
0.0
  0
LTYPE
  2
DASH
 70
     0
  3

 72
    65
 73
     2
 40
6.3499999999999988
 49
3.1749999999999989
 49
-3.1749999999999989
  0
ENDTAB
  0
TABLE
  2
LAYER
 70
     6
  0
LAYER
  2
0
 70
     0
 62
     7
  6
CONTINUOUS
  0
LAYER
  2
DEFPOINTS
 70
     0
 62
     7
  6
CONTINUOUS
  0
ENDTAB
  0
TABLE
  2
STYLE
 70
     3
  0
STYLE
  2
STANDARD
 70
     0
 40
0.0
 41
1.0
 50
0.0
 71
     0
 42
0.2
  3
txt
  4

  0
STYLE
  2
ARIAL
 70
     0
 40
2.9505988023952101
 41
1.0
 50
0.0
 71
     0
 42
0.2
  3
txt
  4

  0
ENDTAB
  0
TABLE
  2
VIEW
 70
     0
  0
ENDTAB
  0
TABLE
  2
UCS
 70
     0
  0
ENDTAB
  0
TABLE
  2
APPID
 70
     5
  0
APPID
  2
ACAD
 70
     0
  0
APPID
  2
ACADANNOTATIVE
 70
     0
  0
APPID
  2
REVIT
 70
     0
  0
APPID
  2
ACAD_NAV_VCDISPLAY
 70
     0
  0
APPID
  2
ACAD_MLEADERVER
 70
     0
  0
ENDTAB
  0
TABLE
  2
DIMSTYLE
 70
     3
  0
DIMSTYLE
  2
STANDARD
 70
     0
  3

  4

  5

  6

  7

 40
1.0
 41
0.18
 42
0.0625
 43
0.38
 44
0.18
 45
0.0
 46
0.0
 47
0.0
 48
0.0
140
0.18
141
0.09
142
0.0
143
25.399999999999999
144
1.0
145
0.0
146
1.0
147
0.09
 71
     0
 72
     0
 73
     1
 74
     1
 75
     0
 76
     0
 77
     0
 78
     0
170
     0
171
     2
172
     0
173
     0
174
     0
175
     0
176
     0
177
     0
178
     0
  0
DIMSTYLE
  2
LINEAR
 70
     0
  3
<>
  4

  5

  6
OBLIQUE
  7
OBLIQUE
 40
304.80000000000001
 41
0.0065616797900262
 42
0.0065616797900262
 43
0.38
 44
0.0065616797900262
 45
0.01
 46
0.0
 47
0.0
 48
0.0
140
3.0
141
0.09
142
0.0
143
25.399999999999999
144
1.0
145
1.0
146
1.0
147
0.0065616797900262
 71
     0
 72
     0
 73
     0
 74
     0
 75
     0
 76
     0
 77
     1
 78
     0
170
     0
171
     2
172
     1
173
     1
174
     1
175
     0
176
     0
177
     0
178
     0
  0
ENDTAB
  0
ENDSEC
  0
SECTION
  2
BLOCKS
  0
BLOCK
  8
0
  2
$MODEL_SPACE
 70
     0
 10
0.0
 20
0.0
 30
0.0
  3
$MODEL_SPACE
  1

  0
ENDBLK
  5
72
  8
0
  0
BLOCK
 67
     1
  8
0
  2
$PAPER_SPACE
 70
     0
 10
0.0
 20
0.0
 30
0.0
  3
$PAPER_SPACE
  1

  0
ENDBLK
  5
76
 67
     1
  8
0
  0
BLOCK
  8
0
  2
_OBLIQUE
 70
     0
 10
0.0
 20
0.0
 30
0.0
  3
_OBLIQUE
  1

  0
LINE
  5
EE
  8
0
  6
BYBLOCK
 62
     0
 10
-0.5
 20
-0.5
 30
0.0
 11
0.5
 21
0.5
 31
0.0
  0
ENDBLK
  5
F0
  8
0
  0
BLOCK
  8
0
  2
DIMBLOCK1-REF__LEVEL
 70
     0
 10
0.0
 20
0.0
 30
0.0
  3
DIMBLOCK1-REF__LEVEL
  1

  0
LINE
  5
186
  8
0
 62
     0
 10
-23.499614510203742
 20
-287.0
 30
0.0
 11
-23.499614510203742
 21
-316.05035713300788
 31
0.0
  0
LINE
  5
187
  8
0
 62
     0
 10
23.500385489796258
 20
-287.0
 30
0.0
 11
23.500385489796258
 21
-316.05035713300788
 31
0.0
  0
LINE
  5
188
  8
0
 62
     0
 10
-23.499614510203742
 20
-314.05035713300788
 30
0.0
 11
23.500385489796258
 21
-314.05035713300788
 31
0.0
  0
INSERT
  5
189
  8
0
 62
     0
  2
_OBLIQUE
 10
-23.499614510203742
 20
-314.05035713300788
 30
0.0
 41
2.0
 42
2.0
 43
2.0
 50
180.0
  0
INSERT
  5
18A
  8
0
 62
     0
  2
_OBLIQUE
 10
23.500385489796258
 20
-314.05035713300788
 30
0.0
 41
2.0
 42
2.0
 43
2.0
  0
INSERT
  5
18B
  8
0
  2
*U9
 10
0.0
 20
0.0
 30
0.0
  0
POINT
  5
18C
  8
DEFPOINTS
 62
     0
 10
-23.499614510203742
 20
-285.00000000000011
 30
0.0
  0
POINT
  5
18D
  8
DEFPOINTS
 62
     0
 10
23.500385489796258
 20
-285.00000000000011
 30
0.0
  0
POINT
  5
18E
  8
DEFPOINTS
 62
     0
 10
23.500385489796258
 20
-314.05035713300788
 30
0.0
  0
ENDBLK
  5
EB
  8
0
  0
BLOCK
  8
0
  2
DIMBLOCK2-REF__LEVEL
 70
     0
 10
0.0
 20
0.0
 30
0.0
  3
DIMBLOCK2-REF__LEVEL
  1

  0
LINE
  5
17D
  8
0
 62
     0
 10
-53.499614510203763
 20
42.000000000000107
 30
0.0
 11
-53.499614510203763
 21
58.029217766586129
 31
0.0
  0
LINE
  5
17E
  8
0
 62
     0
 10
53.500385489796251
 20
42.000000000000107
 30
0.0
 11
53.500385489796251
 21
58.029217766586129
 31
0.0
  0
LINE
  5
17F
  8
0
 62
     0
 10
-53.499614510203763
 20
56.029217766586129
 30
0.0
 11
53.500385489796251
 21
56.029217766586129
 31
0.0
  0
INSERT
  5
180
  8
0
 62
     0
  2
_OBLIQUE
 10
-53.499614510203763
 20
56.029217766586129
 30
0.0
 41
2.0
 42
2.0
 43
2.0
 50
180.0
  0
INSERT
  5
181
  8
0
 62
     0
  2
_OBLIQUE
 10
53.500385489796251
 20
56.029217766586129
 30
0.0
 41
2.0
 42
2.0
 43
2.0
  0
INSERT
  5
182
  8
0
  2
*U8
 10
0.0
 20
0.0
 30
0.0
  0
POINT
  5
183
  8
DEFPOINTS
 62
     0
 10
-53.499614510203763
 20
40.000000000000107
 30
0.0
  0
POINT
  5
184
  8
DEFPOINTS
 62
     0
 10
53.500385489796251
 20
40.000000000000107
 30
0.0
  0
POINT
  5
185
  8
DEFPOINTS
 62
     0
 10
53.500385489796251
 20
56.029217766586129
 30
0.0
  0
ENDBLK
  5
10C
  8
0
  0
BLOCK
  8
0
  2
DIMBLOCK3-REF__LEVEL
 70
     0
 10
0.0
 20
0.0
 30
0.0
  3
DIMBLOCK3-REF__LEVEL
  1

  0
LINE
  5
174
  8
0
 62
     0
 10
-55.499614510203763
 20
40.000000000000107
 30
0.0
 11
-73.987789263513761
 21
40.000000000000107
 31
0.0
  0
LINE
  5
175
  8
0
 62
     0
 10
-55.499614510203749
 20
-285.00000000000011
 30
0.0
 11
-73.987789263513832
 21
-285.00000000000011
 31
0.0
  0
LINE
  5
176
  8
0
 62
     0
 10
-71.987789263513761
 20
40.000000000000107
 30
0.0
 11
-71.987789263513832
 21
-285.00000000000011
 31
0.0
  0
INSERT
  5
177
  8
0
 62
     0
  2
_OBLIQUE
 10
-71.987789263513761
 20
40.000000000000107
 30
0.0
 41
2.0
 42
2.0
 43
2.0
 50
90.0
  0
INSERT
  5
178
  8
0
 62
     0
  2
_OBLIQUE
 10
-71.987789263513832
 20
-285.00000000000011
 30
0.0
 41
2.0
 42
2.0
 43
2.0
 50
270.0
  0
INSERT
  5
179
  8
0
  2
*U7
 10
0.0
 20
0.0
 30
0.0
  0
POINT
  5
17A
  8
DEFPOINTS
 62
     0
 10
-53.499614510203763
 20
40.000000000000107
 30
0.0
  0
POINT
  5
17B
  8
DEFPOINTS
 62
     0
 10
-53.499614510203749
 20
-285.00000000000011
 30
0.0
  0
POINT
  5
17C
  8
DEFPOINTS
 62
     0
 10
-71.987789263513832
 20
-285.00000000000011
 30
0.0
  0
ENDBLK
  5
126
  8
0
  0
BLOCK
  8
0
  2
DIMBLOCK4-REF__LEVEL
 70
     0
 10
0.0
 20
0.0
 30
0.0
  3
DIMBLOCK4-REF__LEVEL
  1

  0
LINE
  5
16B
  8
0
 62
     0
 10
74.921690162832974
 20
-285.00000000000011
 30
0.0
 11
76.335903725206023
 21
-285.00000000000011
 31
0.0
  0
LINE
  5
16C
  8
0
 62
     0
 10
74.921690162832974
 20
-9.9999999999999254
 30
0.0
 11
76.33590372520608
 21
-9.9999999999999272
 31
0.0
  0
LINE
  5
16D
  8
0
 62
     0
 10
74.335903725206023
 20
-285.00000000000011
 30
0.0
 11
74.33590372520608
 21
-9.9999999999999254
 31
0.0
  0
INSERT
  5
16E
  8
0
 62
     0
  2
_OBLIQUE
 10
74.335903725206023
 20
-285.00000000000011
 30
0.0
 41
2.0
 42
2.0
 43
2.0
 50
270.0
  0
INSERT
  5
16F
  8
0
 62
     0
  2
_OBLIQUE
 10
74.33590372520608
 20
-9.9999999999999254
 30
0.0
 41
2.0
 42
2.0
 43
2.0
 50
90.0
  0
INSERT
  5
170
  8
0
  2
*U6
 10
0.0
 20
0.0
 30
0.0
  0
POINT
  5
171
  8
DEFPOINTS
 62
     0
 10
72.921690162832974
 20
-285.00000000000011
 30
0.0
  0
POINT
  5
172
  8
DEFPOINTS
 62
     0
 10
72.921690162832974
 20
-9.9999999999999254
 30
0.0
  0
POINT
  5
173
  8
DEFPOINTS
 62
     0
 10
74.33590372520608
 20
-9.9999999999999254
 30
0.0
  0
ENDBLK
  5
140
  8
0
  0
BLOCK
  8
0
  2
*U6
 70
     1
 10
0.0
 20
0.0
 30
0.0
  3
*U6
  1

  0
TEXT
  5
23C
  8
0
 62
     0
 10
72.279548495692353
 20
-153.76549390986099
 30
0.0
 40
2.9505988023952101
  1
275.00
 50
90.0
  7
ARIAL
  0
ENDBLK
  5
23E
  8
0
  0
BLOCK
  8
0
  2
*U7
 70
     1
 10
0.0
 20
0.0
 30
0.0
  3
*U7
  1

  0
TEXT
  5
240
  8
0
 62
     0
 10
-74.046157179795827
 20
-128.7916588378495
 30
0.0
 40
2.9505988023952101
  1
325.00
 50
90.0
  7
ARIAL
  0
ENDBLK
  5
242
  8
0
  0
BLOCK
  8
0
  2
*U8
 70
     1
 10
0.0
 20
0.0
 30
0.0
  3
*U8
  1

  0
TEXT
  5
244
  8
0
 62
     0
 10
-6.429142391684989
 20
58.085572996099813
 30
0.0
 40
2.9505988023952101
  1
107.00
  7
ARIAL
  0
ENDBLK
  5
246
  8
0
  0
BLOCK
  8
0
  2
*U9
 70
     1
 10
0.0
 20
0.0
 30
0.0
  3
*U9
  1

  0
TEXT
  5
248
  8
0
 62
     0
 10
-5.0846676304298661
 20
-311.99400190349422
 30
0.0
 40
2.9505988023952101
  1
47.00
  7
ARIAL
  0
ENDBLK
  5
24A
  8
0
  0
ENDSEC
  0
SECTION
  2
ENTITIES
  0
LINE
  5
88
  8
0
 10
53.500385489796251
 20
40.000000000000107
 30
0.0
 11
53.500385489796251
 21
-285.00000000000011
 31
0.0
1001
REVIT
1002
{
1070
     1
1000
337387
1002
}
1002
{
1070
     2
1000
-2002000
1002
}
  0
LINE
  5
89
  8
0
 10
53.500385489796251
 20
-285.00000000000011
 30
0.0
 11
43.500385489796251
 21
-285.00000000000011
 31
0.0
1001
REVIT
1002
{
1070
     1
1000
337388
1002
}
1002
{
1070
     2
1000
-2002000
1002
}
  0
LINE
  5
8A
  8
0
 10
43.500385489796251
 20
-285.00000000000011
 30
0.0
 11
43.500385489796251
 21
30.000000000000149
 31
0.0
1001
REVIT
1002
{
1070
     1
1000
337389
1002
}
1002
{
1070
     2
1000
-2002000
1002
}
  0
LINE
  5
8B
  8
0
 10
43.500385489796237
 20
30.000000000000139
 30
0.0
 11
53.500385489796251
 21
40.000000000000128
 31
0.0
1001
REVIT
1002
{
1070
     1
1000
337390
1002
}
1002
{
1070
     2
1000
-2002000
1002
}
  0
LINE
  5
8C
  8
0
 10
53.500385489796251
 20
40.000000000000107
 30
0.0
 11
-53.499614510203749
 21
40.000000000000107
 31
0.0
1001
REVIT
1002
{
1070
     1
1000
337391
1002
}
1002
{
1070
     2
1000
-2002000
1002
}
  0
LINE
  5
8D
  8
0
 10
-53.499614510203749
 20
40.000000000000107
 30
0.0
 11
-53.499614510203749
 21
-285.00000000000011
 31
0.0
1001
REVIT
1002
{
1070
     1
1000
337392
1002
}
1002
{
1070
     2
1000
-2002000
1002
}
  0
LINE
  5
8E
  8
0
 10
-53.499614510203749
 20
-285.00000000000011
 30
0.0
 11
-43.499614510203742
 21
-285.00000000000011
 31
0.0
1001
REVIT
1002
{
1070
     1
1000
337393
1002
}
1002
{
1070
     2
1000
-2002000
1002
}
  0
LINE
  5
8F
  8
0
 10
-43.499614510203742
 20
-285.00000000000011
 30
0.0
 11
-43.499614510203742
 21
30.000000000000149
 31
0.0
1001
REVIT
1002
{
1070
     1
1000
337394
1002
}
1002
{
1070
     2
1000
-2002000
1002
}
  0
LINE
  5
90
  8
0
 10
-43.499614510203742
 20
30.000000000000139
 30
0.0
 11
43.500385489796251
 21
30.000000000000139
 31
0.0
1001
REVIT
1002
{
1070
     1
1000
337395
1002
}
1002
{
1070
     2
1000
-2002000
1002
}
  0
LINE
  5
91
  8
0
 10
43.500385489796251
 20
-285.00000000000011
 30
0.0
 11
23.500385489796258
 21
-285.00000000000011
 31
0.0
1001
REVIT
1002
{
1070
     1
1000
337396
1002
}
1002
{
1070
     2
1000
-2002000
1002
}
  0
LINE
  5
92
  8
0
 10
23.500385489796258
 20
-285.00000000000011
 30
0.0
 11
23.500385489796258
 21
-9.9999999999999591
 31
0.0
1001
REVIT
1002
{
1070
     1
1000
337397
1002
}
1002
{
1070
     2
1000
-2002000
1002
}
1002
{
1070
     3
1000
206783
1002
}
  0
LINE
  5
93
  8
0
 10
23.500385489796258
 20
-9.9999999999999343
 30
0.0
 11
-23.499614510203731
 21
-9.9999999999999343
 31
0.0
1001
REVIT
1002
{
1070
     1
1000
337398
1002
}
1002
{
1070
     2
1000
-2002000
1002
}
1002
{
1070
     3
1000
206783
1002
}
  0
LINE
  5
94
  8
0
 10
-23.499614510203742
 20
-9.9999999999999343
 30
0.0
 11
-23.499614510203742
 21
-285.00000000000011
 31
0.0
1001
REVIT
1002
{
1070
     1
1000
337399
1002
}
1002
{
1070
     2
1000
-2002000
1002
}
1002
{
1070
     3
1000
206783
1002
}
  0
LINE
  5
95
  8
0
 10
-23.499614510203742
 20
-285.00000000000011
 30
0.0
 11
-43.499614510203742
 21
-285.00000000000011
 31
0.0
1001
REVIT
1002
{
1070
     1
1000
337400
1002
}
1002
{
1070
     2
1000
-2002000
1002
}
  0
LINE
  5
96
  8
0
 10
-43.499614510203749
 20
30.000000000000071
 30
0.0
 11
-53.499614510203749
 21
40.000000000000107
 31
0.0
1001
REVIT
1002
{
1070
     1
1000
337401
1002
}
1002
{
1070
     2
1000
-2002000
1002
}
  0
LINE
  5
97
  8
0
 10
-346.99961451020368
 20
30.000000000000739
 30
0.0
 11
-346.99961451020368
 21
40.000000000000732
 31
0.0
1001
REVIT
1002
{
1070
     1
1000
337402
1002
}
1002
{
1070
     2
1000
-2002000
1002
}
1002
{
1070
     3
1000
206783
1002
}
  0
LINE
  5
98
  8
0
 10
-346.99961451020368
 20
40.000000000000732
 30
0.0
 11
-349.99961451020368
 21
40.000000000000732
 31
0.0
1001
REVIT
1002
{
1070
     1
1000
337403
1002
}
1002
{
1070
     2
1000
-2002000
1002
}
1002
{
1070
     3
1000
206783
1002
}
  0
LINE
  5
99
  8
0
 10
-349.99961451020368
 20
40.000000000000732
 30
0.0
 11
-349.99961451020368
 21
-9.9999999999999343
 31
0.0
1001
REVIT
1002
{
1070
     1
1000
337404
1002
}
1002
{
1070
     2
1000
-2002000
1002
}
1002
{
1070
     3
1000
206783
1002
}
  0
LINE
  5
9A
  8
0
 10
-349.99961451020368
 20
-9.9999999999999343
 30
0.0
 11
-279.99961451020368
 21
-9.9999999999999343
 31
0.0
1001
REVIT
1002
{
1070
     1
1000
337405
1002
}
1002
{
1070
     2
1000
-2002000
1002
}
1002
{
1070
     3
1000
206783
1002
}
  0
LINE
  5
9B
  8
0
 10
-279.99961451020368
 20
-9.9999999999999343
 30
0.0
 11
-279.99961451020368
 21
-285.00000000000011
 31
0.0
1001
REVIT
1002
{
1070
     1
1000
337406
1002
}
1002
{
1070
     2
1000
-2002000
1002
}
  0
LINE
  5
9C
  8
0
 10
-279.99961451020368
 20
-285.00000000000011
 30
0.0
 11
-349.99961451020368
 21
-285.00000000000011
 31
0.0
1001
REVIT
1002
{
1070
     1
1000
337407
1002
}
1002
{
1070
     2
1000
-2002000
1002
}
  0
LINE
  5
9D
  8
0
 10
-349.99961451020368
 20
-285.00000000000011
 30
0.0
 11
-349.99961451020368
 21
-9.9999999999999591
 31
0.0
1001
REVIT
1002
{
1070
     1
1000
337408
1002
}
1002
{
1070
     2
1000
-2002000
1002
}
  0
LINE
  5
9E
  8
0
 10
-200.58120474689699
 20
593.11715565765076
 30
0.0
 11
-122.7994588163769
 21
548.20984370662575
 31
0.0
1001
REVIT
1002
{
1070
     1
1000
337409
1002
}
1002
{
1070
     2
1000
-2002000
1002
}
  0
LINE
  5
9F
  8
0
 10
-122.7994588163769
 20
548.20984370662575
 30
0.0
 11
-120.6781384728172
 21
549.43458857801727
 31
0.0
1001
REVIT
1002
{
1070
     1
1000
337410
1002
}
1002
{
1070
     2
1000
-2002000
1002
}
  0
LINE
  5
A0
  8
0
 10
-120.6781384728172
 20
549.43458857801727
 30
0.0
 11
-198.4598844033373
 21
594.34190052904228
 31
0.0
1001
REVIT
1002
{
1070
     1
1000
337411
1002
}
1002
{
1070
     2
1000
-2002000
1002
}
  0
LINE
  5
A1
  8
0
 10
-122.7994588163769
 20
548.20984370662575
 30
0.0
 11
-122.7994588163769
 21
222.38413663654549
 31
0.0
1001
REVIT
1002
{
1070
     1
1000
337412
1002
}
1002
{
1070
     2
1000
-2002000
1002
}
  0
LINE
  5
A2
  8
0
 10
-122.7994588163769
 20
222.38413663654549
 30
0.0
 11
-129.8705266282424
 21
226.46661954118409
 31
0.0
1001
REVIT
1002
{
1070
     1
1000
337413
1002
}
1002
{
1070
     2
1000
-2002000
1002
}
  0
LINE
  5
A3
  8
0
 10
-129.8705266282424
 20
226.46661954118409
 30
0.0
 11
-129.8705266282424
 21
544.12736080198715
 31
0.0
1001
REVIT
1002
{
1070
     1
1000
337414
1002
}
1002
{
1070
     2
1000
-2002000
1002
}
  0
LINE
  5
A4
  8
0
 10
-129.8705266282424
 20
544.12736080198715
 30
0.0
 11
-193.51013693503151
 21
580.86970694373485
 31
0.0
1001
REVIT
1002
{
1070
     1
1000
337415
1002
}
1002
{
1070
     2
1000
-2002000
1002
}
  0
LINE
  5
A5
  8
0
 10
-193.51013693503151
 20
580.86970694373485
 30
0.0
 11
-193.51013693503151
 21
531.87991208807102
 31
0.0
1001
REVIT
1002
{
1070
     1
1000
337416
1002
}
1002
{
1070
     2
1000
-2002000
1002
}
  0
LINE
  5
A6
  8
0
 10
-200.58120474689699
 20
527.79742918343243
 30
0.0
 11
-200.58120474689699
 21
593.11715565765076
 31
0.0
1001
REVIT
1002
{
1070
     1
1000
337417
1002
}
1002
{
1070
     2
1000
-2002000
1002
}
  0
LINE
  5
A7
  8
0
 10
-200.58120474689699
 20
593.11715565765076
 30
0.0
 11
-198.4598844033373
 21
594.34190052904228
 31
0.0
1001
REVIT
1002
{
1070
     1
1000
337418
1002
}
1002
{
1070
     2
1000
-2002000
1002
}
  0
LINE
  5
A8
  8
0
 10
-198.45988440333721
 20
594.34190052904228
 30
0.0
 11
-120.6781384728171
 21
549.43458857801727
 31
0.0
1001
REVIT
1002
{
1070
     1
1000
337419
1002
}
1002
{
1070
     2
1000
-2002000
1002
}
  0
LINE
  5
A9
  8
0
 10
-120.6781384728172
 20
549.43458857801727
 30
0.0
 11
-120.6781384728172
 21
223.60888150793701
 31
0.0
1001
REVIT
1002
{
1070
     1
1000
337420
1002
}
1002
{
1070
     2
1000
-2002000
1002
}
  0
LINE
  5
AA
  8
0
 10
-120.6781384728172
 20
223.60888150793701
 30
0.0
 11
-122.7994588163769
 21
222.38413663654549
 31
0.0
1001
REVIT
1002
{
1070
     1
1000
337421
1002
}
1002
{
1070
     2
1000
-2002000
1002
}
  0
LINE
  5
AB
  8
0
 10
-120.6781384728172
 20
549.43458857801727
 30
0.0
 11
-120.6781384728172
 21
223.60888150793701
 31
0.0
1001
REVIT
1002
{
1070
     1
1000
337422
1002
}
1002
{
1070
     2
1000
-2002000
1002
}
  0
LINE
  5
AC
  8
0
 10
-129.8705266282424
 20
228.9161092839673
 30
0.0
 11
-141.89134190841369
 21
235.856330221853
 31
0.0
1001
REVIT
1002
{
1070
     1
1000
337423
1002
}
1002
{
1070
     2
1000
-2002000
1002
}
  0
LINE
  5
AD
  8
0
 10
-141.89134190841361
 20
520.85720824554676
 30
0.0
 11
-177.24668096774059
 21
541.26962276873985
 31
0.0
1001
REVIT
1002
{
1070
     1
1000
337424
1002
}
1002
{
1070
     2
1000
-2002000
1002
}
  0
LINE
  5
AE
  8
0
 10
-177.24668096774059
 20
541.26962276873985
 30
0.0
 11
-141.89134190841361
 21
520.85720824554699
 31
0.0
1001
REVIT
1002
{
1070
     1
1000
337425
1002
}
1002
{
1070
     2
1000
-2002000
1002
}
  0
LINE
  5
AF
  8
0
 10
-141.89134190841369
 20
235.856330221853
 30
0.0
 11
-191.38881659147219
 21
207.2789498893826
 31
0.0
1001
REVIT
1002
{
1070
     1
1000
337426
1002
}
1002
{
1070
     2
1000
-2002000
1002
}
  0
LINE
  5
B0
  8
0
 10
-191.38881659147219
 20
492.27982791307647
 30
0.0
 11
-191.38881659147219
 21
207.2789498893826
 31
0.0
1001
REVIT
1002
{
1070
     1
1000
337427
1002
}
1002
{
1070
     2
1000
-2002000
1002
}
  0
LINE
  5
B1
  8
0
 10
-177.24668096774059
 20
541.26962276873985
 30
0.0
 11
-226.744155650799
 21
512.69224243626957
 31
0.0
1001
REVIT
1002
{
1070
     1
1000
337428
1002
}
1002
{
1070
     2
1000
-2002000
1002
}
  0
LINE
  5
B2
  8
0
 10
-226.744155650799
 20
512.69224243626957
 30
0.0
 11
-191.38881659147219
 21
492.27982791307647
 31
0.0
1001
REVIT
1002
{
1070
     1
1000
337429
1002
}
1002
{
1070
     2
1000
-2002000
1002
}
  0
LINE
  5
B3
  8
0
 10
-141.89134190841361
 20
520.85720824554699
 30
0.0
 11
-141.89134190841361
 21
235.85633022185289
 31
0.0
1001
REVIT
1002
{
1070
     1
1000
337430
1002
}
1002
{
1070
     2
1000
-2002000
1002
}
  0
LINE
  5
B4
  8
0
 10
-191.38881659147219
 20
248.1037789357687
 30
0.0
 11
-226.74415565079951
 21
227.69136441257569
 31
0.0
1001
REVIT
1002
{
1070
     1
1000
337431
1002
}
1002
{
1070
     2
1000
-2002000
1002
}
  0
LINE
  5
B5
  8
0
 10
-226.74415565079951
 20
227.69136441257569
 30
0.0
 11
-226.74415565079951
 21
512.69224243626945
 31
0.0
1001
REVIT
1002
{
1070
     1
1000
337432
1002
}
1002
{
1070
     2
1000
-2002000
1002
}
  0
LINE
  5
B8
  8
0
 10
-76.546273610624723
 20
348.12466460068998
 30
0.0
 11
-76.546273610624723
 21
598.13065449519854
 31
0.0
1001
REVIT
1002
{
1070
     1
1000
337433
1002
}
1002
{
1070
     2
1000
-2002000
1002
}
1002
{
1070
     3
1000
-2009514
1002
}
  0
LINE
  5
B9
  8
0
 10
-76.546273610624752
 20
598.13065449519854
 30
0.0
 11
-42.298420473198142
 21
578.35720824554357
 31
0.0
1001
REVIT
1002
{
1070
     1
1000
337434
1002
}
1002
{
1070
     2
1000
-2002000
1002
}
1002
{
1070
     3
1000
-2009514
1002
}
  0
LINE
  5
BA
  8
0
 10
-42.298420473198092
 20
578.3572082455438
 30
0.0
 11
-290.98173802668367
 21
434.77982791307772
 31
0.0
1001
REVIT
1002
{
1070
     1
1000
337435
1002
}
1002
{
1070
     2
1000
-2002000
1002
}
1002
{
1070
     3
1000
-2009514
1002
}
  0
LINE
  5
BB
  8
0
 10
-290.98173802668271
 20
434.7798279130771
 30
0.0
 11
-290.98173802668271
 21
184.77894988938749
 31
0.0
1001
REVIT
1002
{
1070
     1
1000
337436
1002
}
1002
{
1070
     2
1000
-2002000
1002
}
1002
{
1070
     3
1000
-2009514
1002
}
  0
LINE
  5
BC
  8
0
 10
-325.22883077328498
 20
204.55239612929131
 30
0.0
 11
-76.545893410991567
 21
348.1295569582702
 31
0.0
1001
REVIT
1002
{
1070
     1
1000
337437
1002
}
1002
{
1070
     2
1000
-2002000
1002
}
1002
{
1070
     3
1000
-2009514
1002
}
  0
LINE
  5
BD
  8
0
 10
-290.9817380266835
 20
434.77982791307772
 30
0.0
 11
-325.22959116410999
 21
454.55283514113779
 31
0.0
1001
REVIT
1002
{
1070
     1
1000
337438
1002
}
1002
{
1070
     2
1000
-2002000
1002
}
1002
{
1070
     3
1000
-2009514
1002
}
  0
LINE
  5
BE
  8
0
 10
-325.22959116410999
 20
454.55283514113779
 30
0.0
 11
-76.545601778743361
 21
598.13060335592138
 31
0.0
1001
REVIT
1002
{
1070
     1
1000
337439
1002
}
1002
{
1070
     2
1000
-2002000
1002
}
1002
{
1070
     3
1000
-2009514
1002
}
  0
LINE
  5
BF
  8
0
 10
-325.22807038245992
 20
204.5528351411389
 30
0.0
 11
-325.22807038245992
 21
454.55283514113728
 31
0.0
1001
REVIT
1002
{
1070
     1
1000
337440
1002
}
1002
{
1070
     2
1000
-2002000
1002
}
1002
{
1070
     3
1000
-2009514
1002
}
  0
LINE
  5
C0
  8
0
 10
-42.298420473198092
 20
578.3572082455438
 30
0.0
 11
-42.298420473198092
 21
328.35633022184692
 31
0.0
1001
REVIT
1002
{
1070
     1
1000
337441
1002
}
1002
{
1070
     2
1000
-2002000
1002
}
1002
{
1070
     3
1000
-2009514
1002
}
  0
LINE
  5
C1
  8
0
 10
-42.298420473198121
 20
328.35633022184982
 30
0.0
 11
-191.38881659147211
 21
242.27894988938121
 31
0.0
1001
REVIT
1002
{
1070
     1
1000
337442
1002
}
1002
{
1070
     2
1000
-2002000
1002
}
1002
{
1070
     3
1000
-2009514
1002
}
  0
LINE
  5
C2
  8
0
 10
-193.51013693503151
 20
580.86970694373485
 30
0.0
 11
-200.58120474689679
 21
593.11715565765064
 31
0.0
1001
REVIT
1002
{
1070
     1
1000
337443
1002
}
1002
{
1070
     2
1000
-2002000
1002
}
  0
LINE
  5
C3
  8
0
 10
-129.8705266282424
 20
544.12736080198715
 30
0.0
 11
-122.7994588163769
 21
548.20984370662575
 31
0.0
1001
REVIT
1002
{
1070
     1
1000
337444
1002
}
1002
{
1070
     2
1000
-2002000
1002
}
  0
LINE
  5
C4
  8
0
 10
-76.545893410991511
 20
348.1295569582702
 30
0.0
 11
-42.298420473198071
 21
328.35633022184982
 31
0.0
1001
REVIT
1002
{
1070
     1
1000
337445
1002
}
1002
{
1070
     2
1000
-2002000
1002
}
1002
{
1070
     3
1000
-2009514
1002
}
  0
LINE
  5
C5
  8
0
 10
-290.98097763585872
 20
184.7793889012313
 30
0.0
 11
-325.22883077328493
 21
204.5523961292914
 31
0.0
1001
REVIT
1002
{
1070
     1
1000
337446
1002
}
1002
{
1070
     2
1000
-2002000
1002
}
1002
{
1070
     3
1000
-2009514
1002
}
  0
LINE
  5
C6
  8
0
 10
-83.867735997265186
 20
204.35616370016439
 30
0.0
 11
-106.46408060427061
 21
188.53403287035491
 31
0.0
1001
REVIT
1002
{
1070
     1
1000
337447
1002
}
1002
{
1070
     2
1000
-2002000
1002
}
  0
LINE
  5
C7
  8
0
 10
-83.867735997265186
 20
254.35554068828009
 30
0.0
 11
-83.867735997265186
 21
204.35616370016439
 31
0.0
1001
REVIT
1002
{
1070
     1
1000
337448
1002
}
1002
{
1070
     2
1000
-2002000
1002
}
  0
LINE
  5
C8
  8
0
 10
-83.867735997265171
 20
204.35554068828009
 30
0.0
 11
-120.6781384728172
 21
225.6080364665186
 31
0.0
1001
REVIT
1002
{
1070
     1
1000
337449
1002
}
1002
{
1070
     2
1000
-2002000
1002
}
  0
LINE
  5
C9
  8
0
 10
-83.867735997265186
 20
254.35554068828009
 30
0.0
 11
-120.6781384728172
 21
275.60803646651851
 31
0.0
1001
REVIT
1002
{
1070
     1
1000
337450
1002
}
1002
{
1070
     2
1000
-2002000
1002
}
  0
LINE
  5
CA
  8
0
 10
-106.46408060427061
 20
188.53403287035491
 30
0.0
 11
-106.46408060427071
 21
153.53465588223921
 31
0.0
1001
REVIT
1002
{
1070
     1
1000
337451
1002
}
1002
{
1070
     2
1000
-2002000
1002
}
  0
LINE
  5
CB
  8
0
 10
-106.46408060427061
 20
153.53465588223921
 30
0.0
 11
-109.9996145102035
 21
149.99912197630641
 31
0.0
1001
REVIT
1002
{
1070
     1
1000
337452
1002
}
1002
{
1070
     2
1000
-2002000
1002
}
  0
LINE
  5
CC
  8
0
 10
-106.46408060427071
 20
153.53465588223921
 30
0.0
 11
-269.27720231047959
 21
247.5348555269224
 31
0.0
1001
REVIT
1002
{
1070
     1
1000
337453
1002
}
1002
{
1070
     2
1000
-2002000
1002
}
  0
LINE
  5
CD
  8
0
 10
-109.9996145102035
 20
149.99912197630641
 30
0.0
 11
-272.8127362164106
 21
243.9993216209887
 31
0.0
1001
REVIT
1002
{
1070
     1
1000
337454
1002
}
1002
{
1070
     2
1000
-2002000
1002
}
  0
LINE
  5
CE
  8
0
 10
-246.6797668050705
 20
348.35683123136511
 30
0.0
 11
-246.6797668050705
 21
298.35745424324932
 31
0.0
1001
REVIT
1002
{
1070
     1
1000
337455
1002
}
1002
{
1070
     2
1000
-2002000
1002
}
  0
LINE
  5
CF
  8
0
 10
-246.6797668050705
 20
298.35745424324932
 30
0.0
 11
-226.74415565079951
 21
286.84762377687139
 31
0.0
1001
REVIT
1002
{
1070
     1
1000
337456
1002
}
1002
{
1070
     2
1000
-2002000
1002
}
  0
LINE
  5
D0
  8
0
 10
-246.6797668050705
 20
348.35683123136511
 30
0.0
 11
-226.74415565079951
 21
336.84700076498729
 31
0.0
1001
REVIT
1002
{
1070
     1
1000
337457
1002
}
1002
{
1070
     2
1000
-2002000
1002
}
  0
LINE
  5
D1
  8
0
 10
-106.46408060427061
 20
188.53403287035491
 30
0.0
 11
-165.1600229281805
 21
222.4221509714032
 31
0.0
1001
REVIT
1002
{
1070
     1
1000
337458
1002
}
1002
{
1070
     2
1000
-2002000
1002
}
  0
LINE
  5
D2
  8
0
 10
-246.680857703474
 20
298.35636334484491
 30
0.0
 11
-269.27720231047732
 21
282.53423251503682
 31
0.0
1001
REVIT
1002
{
1070
     1
1000
337459
1002
}
1002
{
1070
     2
1000
-2002000
1002
}
  0
LINE
  5
D3
  8
0
 10
-269.27720231047942
 20
282.53423251503528
 30
0.0
 11
-269.27720231047948
 21
247.53485552692231
 31
0.0
1001
REVIT
1002
{
1070
     1
1000
337460
1002
}
1002
{
1070
     2
1000
-2002000
1002
}
  0
LINE
  5
D4
  8
0
 10
-269.27720231047778
 20
247.5348555269214
 30
0.0
 11
-272.8127362164106
 21
243.9993216209887
 31
0.0
1001
REVIT
1002
{
1070
     1
1000
337461
1002
}
1002
{
1070
     2
1000
-2002000
1002
}
  0
LINE
  5
D5
  8
0
 10
-226.74415565079951
 20
257.97776657661689
 30
0.0
 11
-269.27720231047721
 21
282.53423251503682
 31
0.0
1001
REVIT
1002
{
1070
     1
1000
337462
1002
}
1002
{
1070
     2
1000
-2002000
1002
}
  0
LINE
  5
D6
  8
0
 10
-191.38881659147219
 20
237.56535205342379
 30
0.0
 11
-200.51536198750779
 21
242.83456549459621
 31
0.0
1001
REVIT
1002
{
1070
     1
1000
337463
1002
}
1002
{
1070
     2
1000
-2002000
1002
}
  0
LINE
  5
D7
  8
0
 10
-191.38881659147211
 20
242.27894988938121
 30
0.0
 11
-290.98097763585861
 21
184.7793889012313
 31
0.0
1001
REVIT
1002
{
1070
     1
1000
337464
1002
}
1002
{
1070
     2
1000
-2002000
1002
}
1002
{
1070
     3
1000
-2009514
1002
}
  0
LINE
  5
D8
  8
0
  6
DASH
 10
-325.2280703824598
 20
454.55283514113631
 30
0.0
 11
-290.98173802668299
 21
184.7789498893865
 31
0.0
1001
REVIT
1002
{
1070
     1
1000
337465
1002
}
1002
{
1070
     2
1000
-2002000
1002
}
1002
{
1070
     3
1000
291475
1002
}
  0
LINE
  5
D9
  8
0
  6
DASH
 10
-290.98173802668271
 20
434.7798279130771
 30
0.0
 11
-325.22807038245992
 21
204.5528351411389
 31
0.0
1001
REVIT
1002
{
1070
     1
1000
337466
1002
}
1002
{
1070
     2
1000
-2002000
1002
}
1002
{
1070
     3
1000
291475
1002
}
  0
LINE
  5
DA
  8
0
  6
DASH
 10
-76.545601778743347
 20
598.13060335592138
 30
0.0
 11
-42.2984204731981
 21
328.35633022185073
 31
0.0
1001
REVIT
1002
{
1070
     1
1000
337467
1002
}
1002
{
1070
     2
1000
-2002000
1002
}
1002
{
1070
     3
1000
291475
1002
}
  0
LINE
  5
DB
  8
0
  6
DASH
 10
-42.299180864021281
 20
578.35676923369408
 30
0.0
 11
-76.546273610624581
 21
348.12466460068941
 31
0.0
1001
REVIT
1002
{
1070
     1
1000
337468
1002
}
1002
{
1070
     2
1000
-2002000
1002
}
1002
{
1070
     3
1000
291475
1002
}
  0
ENDSEC
  0
EOF
