  0
SECTION
  2
HEADER
  9
$ACADVER
  1
AC1009
  9
$INSBASE
 10
0.0
 20
0.0
 30
0.0
  9
$EXTMIN
 10
-117.374809492737
 20
-60.000000000000057
 30
0.0
  9
$EXTMAX
 10
474.72389805247951
 20
537.9691741295037
 30
0.0
  9
$LIMMIN
 10
0.0
 20
0.0
  9
$LIMMAX
 10
12.0
 20
9.0
  9
$ORTHOMODE
 70
     0
  9
$REGENMODE
 70
     1
  9
$FILLMODE
 70
     1
  9
$QTEXTMODE
 70
     0
  9
$MIRRTEXT
 70
     0
  9
$DRAGMODE
 70
     2
  9
$LTSCALE
 40
1.0
  9
$OSMODE
 70
   127
  9
$ATTMODE
 70
     1
  9
$TEXTSIZE
 40
0.2
  9
$TRACEWID
 40
0.05
  9
$TEXTSTYLE
  7
STANDARD
  9
$CLAYER
  8
0
  9
$CELTYPE
  6
BYLAYER
  9
$CECOLOR
 62
   256
  9
$DIMSCALE
 40
1.0
  9
$DIMASZ
 40
0.18
  9
$DIMEXO
 40
0.0625
  9
$DIMDLI
 40
0.38
  9
$DIMRND
 40
0.0
  9
$DIMDLE
 40
0.0
  9
$DIMEXE
 40
0.18
  9
$DIMTP
 40
0.0
  9
$DIMTM
 40
0.0
  9
$DIMTXT
 40
0.18
  9
$DIMCEN
 40
0.09
  9
$DIMTSZ
 40
0.0
  9
$DIMTOL
 70
     0
  9
$DIMLIM
 70
     0
  9
$DIMTIH
 70
     1
  9
$DIMTOH
 70
     1
  9
$DIMSE1
 70
     0
  9
$DIMSE2
 70
     0
  9
$DIMTAD
 70
     0
  9
$DIMZIN
 70
     0
  9
$DIMBLK
  1

  9
$DIMASO
 70
     1
  9
$DIMSHO
 70
     1
  9
$DIMPOST
  1

  9
$DIMAPOST
  1

  9
$DIMALT
 70
     0
  9
$DIMALTD
 70
     2
  9
$DIMALTF
 40
25.399999999999999
  9
$DIMLFAC
 40
1.0
  9
$DIMTOFL
 70
     0
  9
$DIMTVP
 40
0.0
  9
$DIMTIX
 70
     0
  9
$DIMSOXD
 70
     0
  9
$DIMSAH
 70
     0
  9
$DIMBLK1
  1

  9
$DIMBLK2
  1

  9
$DIMSTYLE
  2
STANDARD
  9
$DIMCLRD
 70
     0
  9
$DIMCLRE
 70
     0
  9
$DIMCLRT
 70
     0
  9
$DIMTFAC
 40
1.0
  9
$DIMGAP
 40
0.09
  9
$LUNITS
 70
     2
  9
$LUPREC
 70
     4
  9
$SKETCHINC
 40
0.1
  9
$FILLETRAD
 40
0.0
  9
$AUNITS
 70
     0
  9
$AUPREC
 70
     0
  9
$MENU
  1
.
  9
$ELEVATION
 40
0.0
  9
$PELEVATION
 40
0.0
  9
$THICKNESS
 40
0.0
  9
$LIMCHECK
 70
     0
  9
$BLIPMODE
 70
     0
  9
$CHAMFERA
 40
0.0
  9
$CHAMFERB
 40
0.0
  9
$SKPOLY
 70
     0
  9
$TDCREATE
 40
2457375.558490139
  9
$TDUPDATE
 40
2457378.9913612041
  9
$TDINDWG
 40
0.0001451042
  9
$TDUSRTIMER
 40
0.0001451042
  9
$USRTIMER
 70
     1
  9
$ANGBASE
 50
0.0
  9
$ANGDIR
 70
     0
  9
$PDMODE
 70
     0
  9
$PDSIZE
 40
0.0
  9
$PLINEWID
 40
0.0
  9
$COORDS
 70
     2
  9
$SPLFRAME
 70
     0
  9
$SPLINETYPE
 70
     6
  9
$SPLINESEGS
 70
     8
  9
$ATTDIA
 70
     0
  9
$ATTREQ
 70
     0
  9
$HANDLING
 70
     1
  9
$HANDSEED
  5
16C
  9
$SURFTAB1
 70
     6
  9
$SURFTAB2
 70
     6
  9
$SURFTYPE
 70
     6
  9
$SURFU
 70
     6
  9
$SURFV
 70
     6
  9
$UCSNAME
  2

  9
$UCSORG
 10
0.0
 20
0.0
 30
0.0
  9
$UCSXDIR
 10
1.0
 20
0.0
 30
0.0
  9
$UCSYDIR
 10
0.0
 20
1.0
 30
0.0
  9
$PUCSNAME
  2

  9
$PUCSORG
 10
0.0
 20
0.0
 30
0.0
  9
$PUCSXDIR
 10
1.0
 20
0.0
 30
0.0
  9
$PUCSYDIR
 10
0.0
 20
1.0
 30
0.0
  9
$USERI1
 70
     0
  9
$USERI2
 70
     0
  9
$USERI3
 70
     0
  9
$USERI4
 70
     0
  9
$USERI5
 70
     0
  9
$USERR1
 40
0.0
  9
$USERR2
 40
0.0
  9
$USERR3
 40
0.0
  9
$USERR4
 40
0.0
  9
$USERR5
 40
0.0
  9
$WORLDVIEW
 70
     1
  9
$SHADEDGE
 70
     3
  9
$SHADEDIF
 70
    70
  9
$TILEMODE
 70
     1
  9
$MAXACTVP
 70
    64
  9
$PLIMCHECK
 70
     0
  9
$PEXTMIN
 10
0.0
 20
0.0
 30
0.0
  9
$PEXTMAX
 10
0.0
 20
0.0
 30
0.0
  9
$PLIMMIN
 10
0.0
 20
0.0
  9
$PLIMMAX
 10
12.0
 20
9.0
  9
$UNITMODE
 70
     0
  9
$VISRETAIN
 70
     1
  9
$PLINEGEN
 70
     0
  9
$PSLTSCALE
 70
     1
  0
ENDSEC
  0
SECTION
  2
TABLES
  0
TABLE
  2
VPORT
 70
     1
  0
VPORT
  2
*ACTIVE
 70
     0
 10
0.0
 20
0.0
 11
1.0
 21
1.0
 12
546.84268961283124
 22
238.98458706475179
 13
0.0
 23
0.0
 14
1.0
 24
1.0
 15
0.0
 25
0.0
 16
0.0
 26
0.0
 36
1.0
 17
0.0
 27
0.0
 37
0.0
 40
496.2566957500544
 41
1.7244755244755241
 42
50.0
 43
0.0
 44
0.0
 50
0.0
 51
0.0
 71
     0
 72
  1000
 73
     1
 74
     3
 75
     0
 76
     0
 77
     0
 78
     0
  0
ENDTAB
  0
TABLE
  2
LTYPE
 70
     2
  0
LTYPE
  2
CONTINUOUS
 70
     0
  3
Solid line
 72
    65
 73
     0
 40
0.0
  0
ENDTAB
  0
TABLE
  2
LAYER
 70
     3
  0
LAYER
  2
0
 70
     0
 62
     7
  6
CONTINUOUS
  0
ENDTAB
  0
TABLE
  2
STYLE
 70
     2
  0
STYLE
  2
STANDARD
 70
     0
 40
0.0
 41
1.0
 50
0.0
 71
     0
 42
0.2
  3
txt
  4

  0
ENDTAB
  0
TABLE
  2
VIEW
 70
     0
  0
ENDTAB
  0
TABLE
  2
UCS
 70
     0
  0
ENDTAB
  0
TABLE
  2
APPID
 70
     5
  0
APPID
  2
ACAD
 70
     0
  0
APPID
  2
ACADANNOTATIVE
 70
     0
  0
APPID
  2
REVIT
 70
     0
  0
APPID
  2
ACAD_NAV_VCDISPLAY
 70
     0
  0
APPID
  2
ACAD_MLEADERVER
 70
     0
  0
ENDTAB
  0
TABLE
  2
DIMSTYLE
 70
     2
  0
DIMSTYLE
  2
STANDARD
 70
     0
  3

  4

  5

  6

  7

 40
1.0
 41
0.18
 42
0.0625
 43
0.38
 44
0.18
 45
0.0
 46
0.0
 47
0.0
 48
0.0
140
0.18
141
0.09
142
0.0
143
25.399999999999999
144
1.0
145
0.0
146
1.0
147
0.09
 71
     0
 72
     0
 73
     1
 74
     1
 75
     0
 76
     0
 77
     0
 78
     0
170
     0
171
     2
172
     0
173
     0
174
     0
175
     0
176
     0
177
     0
178
     0
  0
ENDTAB
  0
ENDSEC
  0
SECTION
  2
BLOCKS
  0
BLOCK
  8
0
  2
$MODEL_SPACE
 70
     0
 10
0.0
 20
0.0
 30
0.0
  3
$MODEL_SPACE
  1

  0
ENDBLK
  5
72
  8
0
  0
BLOCK
 67
     1
  8
0
  2
$PAPER_SPACE
 70
     0
 10
0.0
 20
0.0
 30
0.0
  3
$PAPER_SPACE
  1

  0
ENDBLK
  5
76
 67
     1
  8
0
  0
ENDSEC
  0
SECTION
  2
ENTITIES
  0
LINE
  5
88
  8
0
 10
-117.374809492737
 20
-60.000000000000057
 30
0.0
 11
-117.374809492737
 21
50.007795742893272
 31
0.0
1001
REVIT
1002
{
1070
     1
1000
339420
1002
}
1002
{
1070
     2
1000
-2002000
1002
}
  0
LINE
  5
89
  8
0
 10
-117.374809492737
 20
50.007795742893272
 30
0.0
 11
117.3755804723299
 21
50.007795742893272
 31
0.0
1001
REVIT
1002
{
1070
     1
1000
339421
1002
}
1002
{
1070
     2
1000
-2002000
1002
}
  0
LINE
  5
8A
  8
0
 10
117.3755804723299
 20
50.007795742893272
 30
0.0
 11
117.3755804723299
 21
-60.000000000000057
 31
0.0
1001
REVIT
1002
{
1070
     1
1000
339422
1002
}
1002
{
1070
     2
1000
-2002000
1002
}
  0
LINE
  5
8B
  8
0
 10
117.3755804723299
 20
-60.000000000000057
 30
0.0
 11
67.375580472329773
 21
-60.000000000000057
 31
0.0
1001
REVIT
1002
{
1070
     1
1000
339423
1002
}
1002
{
1070
     2
1000
-2002000
1002
}
  0
LINE
  5
8C
  8
0
 10
-67.624419527670113
 20
-60.000000000000057
 30
0.0
 11
-117.374809492737
 21
-60.000000000000057
 31
0.0
1001
REVIT
1002
{
1070
     1
1000
339424
1002
}
1002
{
1070
     2
1000
-2002000
1002
}
  0
LINE
  5
8D
  8
0
 10
-67.375580472329773
 20
-60.000000000000057
 30
0.0
 11
-67.375580472329773
 21
0.0
 31
0.0
1001
REVIT
1002
{
1070
     1
1000
339425
1002
}
1002
{
1070
     2
1000
-2002000
1002
}
1002
{
1070
     3
1000
206783
1002
}
  0
LINE
  5
8E
  8
0
 10
-67.375580472329773
 20
0.0
 30
0.0
 11
67.624419527670142
 21
-12.000000000000011
 31
0.0
1001
REVIT
1002
{
1070
     1
1000
339426
1002
}
1002
{
1070
     2
1000
-2002000
1002
}
1002
{
1070
     3
1000
206783
1002
}
  0
LINE
  5
8F
  8
0
 10
67.624419527670113
 20
-12.000000000000011
 30
0.0
 11
67.624419527670113
 21
-60.000000000000057
 31
0.0
1001
REVIT
1002
{
1070
     1
1000
339427
1002
}
1002
{
1070
     2
1000
-2002000
1002
}
1002
{
1070
     3
1000
206783
1002
}
  0
LINE
  5
90
  8
0
 10
374.72389805247951
 20
50.007795742893322
 30
0.0
 11
374.72389805247951
 21
0.0
 31
0.0
1001
REVIT
1002
{
1070
     1
1000
339428
1002
}
1002
{
1070
     2
1000
-2002000
1002
}
  0
LINE
  5
91
  8
0
 10
374.72389805247963
 20
-60.000000000000057
 30
0.0
 11
474.72389805247951
 21
-60.000000000000057
 31
0.0
1001
REVIT
1002
{
1070
     1
1000
339429
1002
}
1002
{
1070
     2
1000
-2002000
1002
}
  0
LINE
  5
92
  8
0
 10
474.72389805247951
 20
-60.000000000000057
 30
0.0
 11
474.72389805247951
 21
0.0
 31
0.0
1001
REVIT
1002
{
1070
     1
1000
339430
1002
}
1002
{
1070
     2
1000
-2002000
1002
}
  0
LINE
  5
93
  8
0
 10
474.72389805247951
 20
0.0
 30
0.0
 11
374.72389805247951
 21
0.0
 31
0.0
1001
REVIT
1002
{
1070
     1
1000
339431
1002
}
1002
{
1070
     2
1000
-2002000
1002
}
  0
LINE
  5
96
  8
0
 10
474.72389805247951
 20
-12.000000000000011
 30
0.0
 11
374.72389805247951
 21
-12.000000000000011
 31
0.0
1001
REVIT
1002
{
1070
     1
1000
339432
1002
}
1002
{
1070
     2
1000
-2002000
1002
}
1002
{
1070
     3
1000
-2009514
1002
}
  0
LINE
  5
97
  8
0
 10
374.72389805247951
 20
0.0
 30
0.0
 11
374.72389805247963
 21
-60.000000000000057
 31
0.0
1001
REVIT
1002
{
1070
     1
1000
339433
1002
}
1002
{
1070
     2
1000
-2002000
1002
}
  0
LINE
  5
98
  8
0
 10
210.05203820042809
 20
376.71109939627792
 30
0.0
 11
132.27029226990811
 21
421.61841134730292
 31
0.0
1001
REVIT
1002
{
1070
     1
1000
339434
1002
}
1002
{
1070
     2
1000
-2002000
1002
}
  0
LINE
  5
99
  8
0
 10
132.27029226990811
 20
421.61841134730292
 30
0.0
 11
132.27029226990811
 21
372.62861649163938
 31
0.0
1001
REVIT
1002
{
1070
     1
1000
339435
1002
}
1002
{
1070
     2
1000
-2002000
1002
}
  0
LINE
  5
9A
  8
0
 10
132.27029226990811
 20
372.62861649163938
 30
0.0
 11
210.05203820042809
 21
327.72130454061443
 31
0.0
1001
REVIT
1002
{
1070
     1
1000
339436
1002
}
1002
{
1070
     2
1000
-2002000
1002
}
  0
LINE
  5
9B
  8
0
 10
210.05203820042809
 20
327.72130454061443
 30
0.0
 11
210.05203820042809
 21
376.71109939627792
 31
0.0
1001
REVIT
1002
{
1070
     1
1000
339437
1002
}
1002
{
1070
     2
1000
-2002000
1002
}
  0
LINE
  5
9C
  8
0
 10
210.05203820042809
 20
376.71109939627792
 30
0.0
 11
305.51145366061201
 21
422.02665963776661
 31
0.0
1001
REVIT
1002
{
1070
     1
1000
339438
1002
}
1002
{
1070
     2
1000
-2002000
1002
}
  0
LINE
  5
9D
  8
0
 10
305.51145366061201
 20
422.02665963776661
 30
0.0
 11
227.7297077300918
 21
466.93397158879162
 31
0.0
1001
REVIT
1002
{
1070
     1
1000
339439
1002
}
1002
{
1070
     2
1000
-2002000
1002
}
  0
LINE
  5
9E
  8
0
 10
132.27029226990811
 20
421.61841134730298
 30
0.0
 11
227.72970773009189
 21
466.93397158879162
 31
0.0
1001
REVIT
1002
{
1070
     1
1000
339440
1002
}
1002
{
1070
     2
1000
-2002000
1002
}
  0
LINE
  5
9F
  8
0
 10
227.7297077300918
 20
466.93397158879162
 30
0.0
 11
132.270292269908
 21
421.61841134730298
 31
0.0
1001
REVIT
1002
{
1070
     1
1000
339441
1002
}
1002
{
1070
     2
1000
-2002000
1002
}
  0
LINE
  5
A0
  8
0
 10
132.270292269908
 20
421.61841134730298
 30
0.0
 11
132.270292269908
 21
372.62861649163938
 31
0.0
1001
REVIT
1002
{
1070
     1
1000
339442
1002
}
1002
{
1070
     2
1000
-2002000
1002
}
  0
LINE
  5
A1
  8
0
 10
132.27029226990811
 20
372.62861649163938
 30
0.0
 11
96.914953210580663
 21
352.21620196844628
 31
0.0
1001
REVIT
1002
{
1070
     1
1000
339443
1002
}
1002
{
1070
     2
1000
-2002000
1002
}
  0
LINE
  5
A2
  8
0
 10
96.914953210580663
 20
352.21620196844628
 30
0.0
 11
96.914953210580663
 21
442.03082587049602
 31
0.0
1001
REVIT
1002
{
1070
     1
1000
339444
1002
}
1002
{
1070
     2
1000
-2002000
1002
}
  0
LINE
  5
A3
  8
0
 10
96.914953210580663
 20
442.03082587049602
 30
0.0
 11
263.08504678941932
 21
537.9691741295037
 31
0.0
1001
REVIT
1002
{
1070
     1
1000
339445
1002
}
1002
{
1070
     2
1000
-2002000
1002
}
  0
LINE
  5
A4
  8
0
 10
263.08504678941932
 20
537.9691741295037
 30
0.0
 11
263.08504678941932
 21
448.15455022745402
 31
0.0
1001
REVIT
1002
{
1070
     1
1000
339446
1002
}
1002
{
1070
     2
1000
-2002000
1002
}
  0
LINE
  5
A5
  8
0
 10
263.08504678941932
 20
448.15455022745402
 30
0.0
 11
261.67083322704599
 21
447.3380536465263
 31
0.0
1001
REVIT
1002
{
1070
     1
1000
339447
1002
}
1002
{
1070
     2
1000
-2002000
1002
}
  0
LINE
  5
A6
  8
0
 10
268.25899884688181
 20
404.34253856791742
 30
0.0
 11
305.51145366061178
 21
382.83482375323598
 31
0.0
1001
REVIT
1002
{
1070
     1
1000
339448
1002
}
1002
{
1070
     2
1000
-2002000
1002
}
  0
LINE
  5
A7
  8
0
 10
305.51145366061178
 20
382.83482375323598
 30
0.0
 11
305.51145366061178
 21
422.02665963776673
 31
0.0
1001
REVIT
1002
{
1070
     1
1000
339449
1002
}
1002
{
1070
     2
1000
-2002000
1002
}
  0
ENDSEC
  0
EOF
