  0
SECTION
  2
HEADER
  9
$ACADVER
  1
AC1009
  9
$INSBASE
 10
0.0
 20
0.0
 30
0.0
  9
$EXTMIN
 10
-23.819732670191659
 20
-51.37985642792821
 30
0.0
  9
$EXTMAX
 10
40.495431568661793
 20
58.0
 30
0.0
  9
$LIMMIN
 10
0.0
 20
0.0
  9
$LIMMAX
 10
12.0
 20
9.0
  9
$ORTHOMODE
 70
     0
  9
$REGENMODE
 70
     1
  9
$FILLMODE
 70
     1
  9
$QTEXTMODE
 70
     0
  9
$MIRRTEXT
 70
     0
  9
$DRAGMODE
 70
     2
  9
$LTSCALE
 40
1.0
  9
$OSMODE
 70
   127
  9
$ATTMODE
 70
     1
  9
$TEXTSIZE
 40
0.2
  9
$TRACEWID
 40
0.05
  9
$TEXTSTYLE
  7
STANDARD
  9
$CLAYER
  8
0
  9
$CELTYPE
  6
BYLAYER
  9
$CECOLOR
 62
   256
  9
$DIMSCALE
 40
1.0
  9
$DIMASZ
 40
0.18
  9
$DIMEXO
 40
0.0625
  9
$DIMDLI
 40
0.38
  9
$DIMRND
 40
0.0
  9
$DIMDLE
 40
0.0
  9
$DIMEXE
 40
0.18
  9
$DIMTP
 40
0.0
  9
$DIMTM
 40
0.0
  9
$DIMTXT
 40
0.18
  9
$DIMCEN
 40
0.09
  9
$DIMTSZ
 40
0.0
  9
$DIMTOL
 70
     0
  9
$DIMLIM
 70
     0
  9
$DIMTIH
 70
     1
  9
$DIMTOH
 70
     1
  9
$DIMSE1
 70
     0
  9
$DIMSE2
 70
     0
  9
$DIMTAD
 70
     0
  9
$DIMZIN
 70
     0
  9
$DIMBLK
  1

  9
$DIMASO
 70
     1
  9
$DIMSHO
 70
     1
  9
$DIMPOST
  1

  9
$DIMAPOST
  1

  9
$DIMALT
 70
     0
  9
$DIMALTD
 70
     2
  9
$DIMALTF
 40
25.399999999999999
  9
$DIMLFAC
 40
1.0
  9
$DIMTOFL
 70
     0
  9
$DIMTVP
 40
0.0
  9
$DIMTIX
 70
     0
  9
$DIMSOXD
 70
     0
  9
$DIMSAH
 70
     0
  9
$DIMBLK1
  1

  9
$DIMBLK2
  1

  9
$DIMSTYLE
  2
STANDARD
  9
$DIMCLRD
 70
     0
  9
$DIMCLRE
 70
     0
  9
$DIMCLRT
 70
     0
  9
$DIMTFAC
 40
1.0
  9
$DIMGAP
 40
0.09
  9
$LUNITS
 70
     2
  9
$LUPREC
 70
     4
  9
$SKETCHINC
 40
0.1
  9
$FILLETRAD
 40
0.0
  9
$AUNITS
 70
     0
  9
$AUPREC
 70
     0
  9
$MENU
  1
.
  9
$ELEVATION
 40
0.0
  9
$PELEVATION
 40
0.0
  9
$THICKNESS
 40
0.0
  9
$LIMCHECK
 70
     0
  9
$BLIPMODE
 70
     0
  9
$CHAMFERA
 40
0.0
  9
$CHAMFERB
 40
0.0
  9
$SKPOLY
 70
     0
  9
$TDCREATE
 40
2457375.563520174
  9
$TDUPDATE
 40
2457378.9869303708
  9
$TDINDWG
 40
0.0001199421
  9
$TDUSRTIMER
 40
0.0001199421
  9
$USRTIMER
 70
     1
  9
$ANGBASE
 50
0.0
  9
$ANGDIR
 70
     0
  9
$PDMODE
 70
     0
  9
$PDSIZE
 40
0.0
  9
$PLINEWID
 40
0.0
  9
$COORDS
 70
     2
  9
$SPLFRAME
 70
     0
  9
$SPLINETYPE
 70
     6
  9
$SPLINESEGS
 70
     8
  9
$ATTDIA
 70
     0
  9
$ATTREQ
 70
     0
  9
$HANDLING
 70
     1
  9
$HANDSEED
  5
25A
  9
$SURFTAB1
 70
     6
  9
$SURFTAB2
 70
     6
  9
$SURFTYPE
 70
     6
  9
$SURFU
 70
     6
  9
$SURFV
 70
     6
  9
$UCSNAME
  2

  9
$UCSORG
 10
0.0
 20
0.0
 30
0.0
  9
$UCSXDIR
 10
1.0
 20
0.0
 30
0.0
  9
$UCSYDIR
 10
0.0
 20
1.0
 30
0.0
  9
$PUCSNAME
  2

  9
$PUCSORG
 10
0.0
 20
0.0
 30
0.0
  9
$PUCSXDIR
 10
1.0
 20
0.0
 30
0.0
  9
$PUCSYDIR
 10
0.0
 20
1.0
 30
0.0
  9
$USERI1
 70
     0
  9
$USERI2
 70
     0
  9
$USERI3
 70
     0
  9
$USERI4
 70
     0
  9
$USERI5
 70
     0
  9
$USERR1
 40
0.0
  9
$USERR2
 40
0.0
  9
$USERR3
 40
0.0
  9
$USERR4
 40
0.0
  9
$USERR5
 40
0.0
  9
$WORLDVIEW
 70
     1
  9
$SHADEDGE
 70
     3
  9
$SHADEDIF
 70
    70
  9
$TILEMODE
 70
     1
  9
$MAXACTVP
 70
    64
  9
$PLIMCHECK
 70
     0
  9
$PEXTMIN
 10
0.0
 20
0.0
 30
0.0
  9
$PEXTMAX
 10
0.0
 20
0.0
 30
0.0
  9
$PLIMMIN
 10
0.0
 20
0.0
  9
$PLIMMAX
 10
12.0
 20
9.0
  9
$UNITMODE
 70
     0
  9
$VISRETAIN
 70
     1
  9
$PLINEGEN
 70
     0
  9
$PSLTSCALE
 70
     1
  0
ENDSEC
  0
SECTION
  2
TABLES
  0
TABLE
  2
VPORT
 70
     1
  0
VPORT
  2
*ACTIVE
 70
     0
 10
0.0
 20
0.0
 11
1.0
 21
1.0
 12
97.523497819882536
 22
3.731222184516958
 13
0.0
 23
0.0
 14
1.0
 24
1.0
 15
0.0
 25
0.0
 16
0.0
 26
0.0
 36
1.0
 17
0.0
 27
0.0
 37
0.0
 40
90.075694621920107
 41
1.7244755244755241
 42
50.0
 43
0.0
 44
0.0
 50
0.0
 51
0.0
 71
     0
 72
  1000
 73
     1
 74
     3
 75
     0
 76
     0
 77
     0
 78
     0
  0
ENDTAB
  0
TABLE
  2
LTYPE
 70
     1
  0
LTYPE
  2
CONTINUOUS
 70
     0
  3
Solid line
 72
    65
 73
     0
 40
0.0
  0
ENDTAB
  0
TABLE
  2
LAYER
 70
     5
  0
LAYER
  2
0
 70
     0
 62
     7
  6
CONTINUOUS
  0
LAYER
  2
DEFPOINTS
 70
     0
 62
     7
  6
CONTINUOUS
  0
ENDTAB
  0
TABLE
  2
STYLE
 70
     3
  0
STYLE
  2
STANDARD
 70
     0
 40
0.0
 41
1.0
 50
0.0
 71
     0
 42
0.2
  3
txt
  4

  0
STYLE
  2
ARIAL
 70
     0
 40
2.9505988023952101
 41
1.0
 50
0.0
 71
     0
 42
0.2
  3
txt
  4

  0
ENDTAB
  0
TABLE
  2
VIEW
 70
     0
  0
ENDTAB
  0
TABLE
  2
UCS
 70
     0
  0
ENDTAB
  0
TABLE
  2
APPID
 70
     5
  0
APPID
  2
ACAD
 70
     0
  0
APPID
  2
ACADANNOTATIVE
 70
     0
  0
APPID
  2
REVIT
 70
     0
  0
APPID
  2
ACAD_NAV_VCDISPLAY
 70
     0
  0
APPID
  2
ACAD_MLEADERVER
 70
     0
  0
ENDTAB
  0
TABLE
  2
DIMSTYLE
 70
     4
  0
DIMSTYLE
  2
STANDARD
 70
     0
  3

  4

  5

  6

  7

 40
1.0
 41
0.18
 42
0.0625
 43
0.38
 44
0.18
 45
0.0
 46
0.0
 47
0.0
 48
0.0
140
0.18
141
0.09
142
0.0
143
25.399999999999999
144
1.0
145
0.0
146
1.0
147
0.09
 71
     0
 72
     0
 73
     1
 74
     1
 75
     0
 76
     0
 77
     0
 78
     0
170
     0
171
     2
172
     0
173
     0
174
     0
175
     0
176
     0
177
     0
178
     0
  0
DIMSTYLE
  2
LINEAR
 70
     0
  3
<>
  4

  5

  6
OBLIQUE
  7
OBLIQUE
 40
304.80000000000001
 41
0.0065616797900262
 42
0.0065616797900262
 43
0.38
 44
0.0065616797900262
 45
0.01
 46
0.0
 47
0.0
 48
0.0
140
3.0
141
0.09
142
0.0
143
25.399999999999999
144
1.0
145
1.0
146
1.0
147
0.0065616797900262
 71
     0
 72
     0
 73
     0
 74
     0
 75
     0
 76
     0
 77
     1
 78
     0
170
     0
171
     2
172
     1
173
     1
174
     1
175
     0
176
     0
177
     0
178
     0
  0
DIMSTYLE
  2
ANGULAR
 70
     0
  3
<>
  4

  5

  6
OBLIQUE
  7
OBLIQUE
 40
304.80000000000001
 41
0.0065616797900262
 42
0.0065616797900262
 43
0.38
 44
0.0065616797900262
 45
0.0
 46
0.0
 47
0.0
 48
0.0
140
3.0
141
0.09
142
0.0
143
25.399999999999999
144
1.0
145
1.0
146
1.0
147
0.0065616797900262
 71
     0
 72
     0
 73
     0
 74
     0
 75
     0
 76
     0
 77
     1
 78
     0
170
     0
171
     2
172
     1
173
     1
174
     1
175
     0
176
     0
177
     0
178
     0
  0
ENDTAB
  0
ENDSEC
  0
SECTION
  2
BLOCKS
  0
BLOCK
  8
0
  2
$MODEL_SPACE
 70
     0
 10
0.0
 20
0.0
 30
0.0
  3
$MODEL_SPACE
  1

  0
ENDBLK
  5
72
  8
0
  0
BLOCK
 67
     1
  8
0
  2
$PAPER_SPACE
 70
     0
 10
0.0
 20
0.0
 30
0.0
  3
$PAPER_SPACE
  1

  0
ENDBLK
  5
76
 67
     1
  8
0
  0
BLOCK
  8
0
  2
_OBLIQUE
 70
     0
 10
0.0
 20
0.0
 30
0.0
  3
_OBLIQUE
  1

  0
LINE
  5
9E
  8
0
  6
BYBLOCK
 62
     0
 10
-0.5
 20
-0.5
 30
0.0
 11
0.5
 21
0.5
 31
0.0
  0
ENDBLK
  5
A0
  8
0
  0
BLOCK
  8
0
  2
DIMBLOCK1-REF__LEVEL
 70
     0
 10
0.0
 20
0.0
 30
0.0
  3
DIMBLOCK1-REF__LEVEL
  1

  0
LINE
  5
18D
  8
0
 62
     0
 10
-17.797074762381929
 20
57.0
 30
0.0
 11
-19.211288324755198
 21
57.0
 31
0.0
  0
LINE
  5
18E
  8
0
 62
     0
 10
-17.797074762381939
 20
-0.000000000000004
 30
0.0
 11
-19.21128832475522
 21
-0.0000000000000036
 31
0.0
  0
LINE
  5
18F
  8
0
 62
     0
 10
-17.211288324755198
 20
57.0
 30
0.0
 11
-17.21128832475522
 21
-0.0000000000000042
 31
0.0
  0
INSERT
  5
190
  8
0
 62
     0
  2
_OBLIQUE
 10
-17.211288324755198
 20
57.0
 30
0.0
 41
2.0
 42
2.0
 43
2.0
 50
90.0
  0
INSERT
  5
191
  8
0
 62
     0
  2
_OBLIQUE
 10
-17.21128832475522
 20
-0.0000000000000042
 30
0.0
 41
2.0
 42
2.0
 43
2.0
 50
270.0
  0
INSERT
  5
192
  8
0
  2
*U13
 10
0.0
 20
0.0
 30
0.0
  0
POINT
  5
193
  8
DEFPOINTS
 62
     0
 10
-15.79707476238193
 20
56.999999999999993
 30
0.0
  0
POINT
  5
194
  8
DEFPOINTS
 62
     0
 10
-15.79707476238193
 20
-0.0000000000000046
 30
0.0
  0
POINT
  5
195
  8
DEFPOINTS
 62
     0
 10
-17.21128832475522
 20
-0.0000000000000042
 30
0.0
  0
ENDBLK
  5
9B
  8
0
  0
BLOCK
  8
0
  2
DIMBLOCK2-REF__LEVEL
 70
     0
 10
0.0
 20
0.0
 30
0.0
  3
DIMBLOCK2-REF__LEVEL
  1

  0
LINE
  5
184
  8
0
 62
     0
 10
12.625184089179511
 20
-37.847009496127633
 30
0.0
 11
28.139809599978118
 21
-37.84700949612764
 31
0.0
  0
LINE
  5
185
  8
0
 62
     0
 10
12.625184089179569
 20
-2.847009496127674
 30
0.0
 11
28.139809599978118
 21
-2.8470094961276788
 31
0.0
  0
LINE
  5
186
  8
0
 62
     0
 10
26.139809599978118
 20
-37.84700949612764
 30
0.0
 11
26.139809599978118
 21
-2.847009496127678
 31
0.0
  0
INSERT
  5
187
  8
0
 62
     0
  2
_OBLIQUE
 10
26.139809599978118
 20
-37.84700949612764
 30
0.0
 41
2.0
 42
2.0
 43
2.0
 50
270.0
  0
INSERT
  5
188
  8
0
 62
     0
  2
_OBLIQUE
 10
26.139809599978118
 20
-2.847009496127678
 30
0.0
 41
2.0
 42
2.0
 43
2.0
 50
90.0
  0
INSERT
  5
189
  8
0
  2
*U12
 10
0.0
 20
0.0
 30
0.0
  0
POINT
  5
18A
  8
DEFPOINTS
 62
     0
 10
10.625184089179511
 20
-37.847009496127633
 30
0.0
  0
POINT
  5
18B
  8
DEFPOINTS
 62
     0
 10
10.625184089179569
 20
-2.847009496127674
 30
0.0
  0
POINT
  5
18C
  8
DEFPOINTS
 62
     0
 10
26.139809599978118
 20
-2.847009496127678
 30
0.0
  0
ENDBLK
  5
BC
  8
0
  0
BLOCK
  8
0
  2
DIMBLOCK3-REF__LEVEL
 70
     0
 10
0.0
 20
0.0
 30
0.0
  3
DIMBLOCK3-REF__LEVEL
  1

  0
LINE
  5
179
  8
0
 62
     0
 10
0.5176380902048593
 20
1.931851652578185
 30
0.0
 11
3.2804130011646859
 21
12.24266799015685
 31
0.0
  0
LINE
  5
17A
  8
0
 62
     0
 10
11.142822179384609
 20
-0.9151578435495398
 30
0.0
 11
13.90559709034444
 21
9.3956584940291297
 31
0.0
  0
LINE
  5
17B
  8
0
 62
     0
 10
2.7627749109596458
 20
10.31081633757872
 30
0.0
 11
0.830923258381509
 21
10.828454427783759
 31
0.0
  0
LINE
  5
17C
  8
0
 62
     0
 10
13.3879590001394
 20
7.4638068414509924
 30
0.0
 11
15.319810652717541
 21
6.9461687512459509
 31
0.0
  0
LINE
  5
17D
  8
0
 62
     0
 10
2.7627749109596458
 20
10.31081633757872
 30
0.0
 11
13.3879590001394
 21
7.4638068414509924
 31
0.0
  0
INSERT
  5
17E
  8
0
 62
     0
  2
_OBLIQUE
 10
2.7627749109596458
 20
10.31081633757872
 30
0.0
 41
2.0
 42
2.0
 43
2.0
 50
345.0
  0
INSERT
  5
17F
  8
0
 62
     0
  2
_OBLIQUE
 10
13.3879590001394
 20
7.4638068414509924
 30
0.0
 41
2.0
 42
2.0
 43
2.0
 50
165.0
  0
INSERT
  5
180
  8
0
  2
*U11
 10
0.0
 20
0.0
 30
0.0
  0
POINT
  5
181
  8
DEFPOINTS
 62
     0
 10
-0.0000000000001819
 20
0.0000000000000486
 30
0.0
  0
POINT
  5
182
  8
DEFPOINTS
 62
     0
 10
10.625184089179569
 20
-2.8470094961276762
 30
0.0
  0
POINT
  5
183
  8
DEFPOINTS
 62
     0
 10
13.3879590001394
 20
7.4638068414509924
 30
0.0
  0
ENDBLK
  5
D6
  8
0
  0
BLOCK
  8
0
  2
DIMBLOCK4-REF__LEVEL
 70
     0
 10
0.0
 20
0.0
 30
0.0
  3
DIMBLOCK4-REF__LEVEL
  1

  0
LINE
  5
16E
  8
0
 62
     0
 10
8.8931332816106359
 20
-38.84700949612764
 30
0.0
 11
-0.8554865921575328
 21
-44.475377804475009
 31
0.0
  0
LINE
  5
16F
  8
0
 62
     0
 10
12.393133281610631
 20
-44.909187322618713
 30
0.0
 11
2.6445134078424601
 21
-50.537555630966082
 31
0.0
  0
LINE
  5
170
  8
0
 62
     0
 10
0.8765642154113457
 20
-43.475377804475023
 30
0.0
 11
-0.1234357845886507
 21
-41.743326996906141
 31
0.0
  0
LINE
  5
171
  8
0
 62
     0
 10
4.3765642154113378
 20
-49.537555630966089
 30
0.0
 11
5.3765642154113351
 21
-51.269606438534971
 31
0.0
  0
LINE
  5
172
  8
0
 62
     0
 10
0.8765642154113457
 20
-43.475377804475023
 30
0.0
 11
4.3765642154113378
 21
-49.537555630966089
 31
0.0
  0
INSERT
  5
173
  8
0
 62
     0
  2
_OBLIQUE
 10
0.8765642154113457
 20
-43.475377804475023
 30
0.0
 41
2.0
 42
2.0
 43
2.0
 50
300.0
  0
INSERT
  5
174
  8
0
 62
     0
  2
_OBLIQUE
 10
4.3765642154113378
 20
-49.537555630966089
 30
0.0
 41
2.0
 42
2.0
 43
2.0
 50
119.9999999999999
  0
INSERT
  5
175
  8
0
  2
*U10
 10
0.0
 20
0.0
 30
0.0
  0
POINT
  5
176
  8
DEFPOINTS
 62
     0
 10
10.625184089179511
 20
-37.847009496127647
 30
0.0
  0
POINT
  5
177
  8
DEFPOINTS
 62
     0
 10
14.1251840891795
 20
-43.909187322618713
 30
0.0
  0
POINT
  5
178
  8
DEFPOINTS
 62
     0
 10
4.3765642154113378
 20
-49.537555630966089
 30
0.0
  0
ENDBLK
  5
F2
  8
0
  0
BLOCK
  8
0
  2
DIMBLOCK5-REF__LEVEL
 70
     0
 10
0.0
 20
0.0
 30
0.0
  3
DIMBLOCK5-REF__LEVEL
  1

  0
LINE
  5
164
  8
0
 62
     0
 10
12.55703574175771
 20
-3.3646475863327181
 30
0.0
 11
37.183731546313929
 21
-9.9633508394104844
 31
0.0
  0
LINE
  5
165
  8
0
 62
     0
 10
38.495431568661793
 20
0.0000000000000018
 30
0.0
 11
34.495431568661793
 21
0.0000000000000044
 31
0.0
  0
ARC
  5
166
  8
0
 62
     0
 10
0.0
 20
0.0
 30
0.0
 40
36.4954315686618
 50
345.0
 51
0.0
  0
INSERT
  5
167
  8
0
 62
     0
  2
_OBLIQUE
 10
35.251879893735783
 20
-9.4457127492054482
 30
0.0
 41
2.0
 42
2.0
 43
2.0
 50
255.0
  0
INSERT
  5
168
  8
0
 62
     0
  2
_OBLIQUE
 10
36.4954315686618
 20
-0.000000000000024
 30
0.0
 41
2.0
 42
2.0
 43
2.0
 50
90.0
  0
INSERT
  5
169
  8
0
  2
*U9
 10
0.0
 20
0.0
 30
0.0
  0
POINT
  5
16A
  8
DEFPOINTS
 62
     0
 10
0.0
 20
0.0
 30
0.0
  0
POINT
  5
16B
  8
DEFPOINTS
 62
     0
 10
10.625184089179569
 20
-2.8470094961276771
 30
0.0
  0
POINT
  5
16C
  8
DEFPOINTS
 62
     0
 10
40.495431568661793
 20
0.0
 30
0.0
  0
POINT
  5
16D
  8
DEFPOINTS
 62
     0
 10
35.940983958344617
 20
-6.3373651850662958
 30
0.0
  0
ENDBLK
  5
110
  8
0
  0
BLOCK
  8
0
  2
DIMBLOCK6-REF__LEVEL
 70
     0
 10
0.0
 20
0.0
 30
0.0
  3
DIMBLOCK6-REF__LEVEL
  1

  0
LINE
  5
15A
  8
0
 62
     0
 10
14.4289646105315
 20
-44.435350619950142
 30
0.0
 11
12.42896461053151
 21
-40.971249004812393
 31
0.0
  0
LINE
  5
15B
  8
0
 62
     0
 10
10.62518408917952
 20
-30.23944845342362
 30
0.0
 11
10.62518408917952
 21
-34.239448453423641
 31
0.0
  0
ARC
  5
15C
  8
0
 62
     0
 10
10.625184089179511
 20
-37.84700949612764
 30
0.0
 40
5.6075610427040097
 50
299.99999999999989
 51
89.999999999999915
  0
INSERT
  5
15D
  8
0
 62
     0
  2
_OBLIQUE
 10
13.42896461053151
 20
-42.703299812381267
 30
0.0
 41
2.0
 42
2.0
 43
2.0
 50
210.0
  0
INSERT
  5
15E
  8
0
 62
     0
  2
_OBLIQUE
 10
10.62518408917952
 20
-32.239448453423641
 30
0.0
 41
2.0
 42
2.0
 43
2.0
 50
179.99999999999989
  0
INSERT
  5
15F
  8
0
  2
*U8
 10
0.0
 20
0.0
 30
0.0
  0
POINT
  5
160
  8
DEFPOINTS
 62
     0
 10
10.625184089179511
 20
-37.84700949612764
 30
0.0
  0
POINT
  5
161
  8
DEFPOINTS
 62
     0
 10
15.4289646105315
 20
-46.167401427519017
 30
0.0
  0
POINT
  5
162
  8
DEFPOINTS
 62
     0
 10
10.62518408917953
 20
-28.23944845342362
 30
0.0
  0
POINT
  5
163
  8
DEFPOINTS
 62
     0
 10
16.14755367952365
 20
-38.820752252349273
 30
0.0
  0
ENDBLK
  5
12E
  8
0
  0
BLOCK
  8
0
  2
*U8
 70
     1
 10
0.0
 20
0.0
 30
0.0
  3
*U8
  1

  0
TEXT
  5
243
  8
0
 62
     0
 10
16.160454569138121
 20
-28.893821529560821
 30
0.0
 40
2.9505988023952101
  1
150.00°
 50
284.99999999999989
  7
ARIAL
  0
ENDBLK
  5
245
  8
0
  0
BLOCK
  8
0
  2
*U9
 70
     1
 10
0.0
 20
0.0
 30
0.0
  3
*U9
  1

  0
TEXT
  5
247
  8
0
 62
     0
 10
33.352248267627061
 20
-10.512535113507241
 30
0.0
 40
2.9505988023952101
  1
15.00°
 50
82.500000000000028
  7
ARIAL
  0
ENDBLK
  5
249
  8
0
  0
BLOCK
  8
0
  2
*U10
 70
     1
 10
0.0
 20
0.0
 30
0.0
  3
*U10
  1

  0
TEXT
  5
24B
  8
0
 62
     0
 10
2.402280890410494
 20
-42.005286144501213
 30
0.0
 40
2.9505988023952101
  1
7.00
 50
300.0
  7
ARIAL
  0
ENDBLK
  5
24D
  8
0
  0
BLOCK
  8
0
  2
*U11
 70
     1
 10
0.0
 20
0.0
 30
0.0
  3
*U11
  1

  0
TEXT
  5
24F
  8
0
 62
     0
 10
3.5043122617827018
 20
12.24101759084539
 30
0.0
 40
2.9505988023952101
  1
11.00
 50
345.0
  7
ARIAL
  0
ENDBLK
  5
251
  8
0
  0
BLOCK
  8
0
  2
*U12
 70
     1
 10
0.0
 20
0.0
 30
0.0
  3
*U12
  1

  0
TEXT
  5
253
  8
0
 62
     0
 10
24.081441683696092
 20
-25.492443219404159
 30
0.0
 40
2.9505988023952101
  1
35.00
 50
90.0
  7
ARIAL
  0
ENDBLK
  5
255
  8
0
  0
BLOCK
  8
0
  2
*U13
 70
     1
 10
0.0
 20
0.0
 30
0.0
  3
*U13
  1

  0
TEXT
  5
257
  8
0
 62
     0
 10
-19.267643554268911
 20
23.355572620107662
 30
0.0
 40
2.9505988023952101
  1
57.00
 50
90.0
  7
ARIAL
  0
ENDBLK
  5
259
  8
0
  0
ENDSEC
  0
SECTION
  2
ENTITIES
  0
LINE
  5
88
  8
0
 10
-0.0000000000000856
 20
56.999999999999943
 30
0.0
 11
-0.0000000000001777
 21
0.0000000000000508
 31
0.0
1001
REVIT
1002
{
1070
     1
1000
253626
1002
}
1002
{
1070
     2
1000
-2002000
1002
}
1002
{
1070
     3
1000
206783
1002
}
  0
LINE
  5
89
  8
0
 10
-0.0000000000001814
 20
0.0000000000000492
 30
0.0
 11
10.625184089179569
 21
-2.8470094961276771
 31
0.0
1001
REVIT
1002
{
1070
     1
1000
253628
1002
}
1002
{
1070
     2
1000
-2002000
1002
}
1002
{
1070
     3
1000
206783
1002
}
  0
LINE
  5
8A
  8
0
 10
10.625184089179569
 20
-2.8470094961276762
 30
0.0
 11
10.625184089179511
 21
-37.847009496127633
 31
0.0
1001
REVIT
1002
{
1070
     1
1000
253631
1002
}
1002
{
1070
     2
1000
-2002000
1002
}
1002
{
1070
     3
1000
206783
1002
}
  0
LINE
  5
8B
  8
0
 10
10.62518408917952
 20
-37.847009496127647
 30
0.0
 11
14.1251840891795
 21
-43.909187322618713
 31
0.0
1001
REVIT
1002
{
1070
     1
1000
253633
1002
}
1002
{
1070
     2
1000
-2002000
1002
}
1002
{
1070
     3
1000
206783
1002
}
  0
ENDSEC
  0
EOF
