  0
SECTION
  2
HEADER
  9
$ACADVER
  1
AC1009
  9
$INSBASE
 10
0.0
 20
0.0
 30
0.0
  9
$EXTMIN
 10
-29.849216529772981
 20
-22.629590330857582
 30
0.0
  9
$EXTMAX
 10
106.73128689907441
 20
105.913564909371
 30
0.0
  9
$LIMMIN
 10
0.0
 20
0.0
  9
$LIMMAX
 10
12.0
 20
9.0
  9
$ORTHOMODE
 70
     0
  9
$REGENMODE
 70
     1
  9
$FILLMODE
 70
     1
  9
$QTEXTMODE
 70
     0
  9
$MIRRTEXT
 70
     0
  9
$DRAGMODE
 70
     2
  9
$LTSCALE
 40
1.0
  9
$OSMODE
 70
   127
  9
$ATTMODE
 70
     1
  9
$TEXTSIZE
 40
0.2
  9
$TRACEWID
 40
0.05
  9
$TEXTSTYLE
  7
STANDARD
  9
$CLAYER
  8
0
  9
$CELTYPE
  6
BYLAYER
  9
$CECOLOR
 62
   256
  9
$DIMSCALE
 40
1.0
  9
$DIMASZ
 40
0.18
  9
$DIMEXO
 40
0.0625
  9
$DIMDLI
 40
0.38
  9
$DIMRND
 40
0.0
  9
$DIMDLE
 40
0.0
  9
$DIMEXE
 40
0.18
  9
$DIMTP
 40
0.0
  9
$DIMTM
 40
0.0
  9
$DIMTXT
 40
0.18
  9
$DIMCEN
 40
0.09
  9
$DIMTSZ
 40
0.0
  9
$DIMTOL
 70
     0
  9
$DIMLIM
 70
     0
  9
$DIMTIH
 70
     1
  9
$DIMTOH
 70
     1
  9
$DIMSE1
 70
     0
  9
$DIMSE2
 70
     0
  9
$DIMTAD
 70
     0
  9
$DIMZIN
 70
     0
  9
$DIMBLK
  1

  9
$DIMASO
 70
     1
  9
$DIMSHO
 70
     1
  9
$DIMPOST
  1

  9
$DIMAPOST
  1

  9
$DIMALT
 70
     0
  9
$DIMALTD
 70
     2
  9
$DIMALTF
 40
25.399999999999999
  9
$DIMLFAC
 40
1.0
  9
$DIMTOFL
 70
     0
  9
$DIMTVP
 40
0.0
  9
$DIMTIX
 70
     0
  9
$DIMSOXD
 70
     0
  9
$DIMSAH
 70
     0
  9
$DIMBLK1
  1

  9
$DIMBLK2
  1

  9
$DIMSTYLE
  2
STANDARD
  9
$DIMCLRD
 70
     0
  9
$DIMCLRE
 70
     0
  9
$DIMCLRT
 70
     0
  9
$DIMTFAC
 40
1.0
  9
$DIMGAP
 40
0.09
  9
$LUNITS
 70
     2
  9
$LUPREC
 70
     4
  9
$SKETCHINC
 40
0.1
  9
$FILLETRAD
 40
0.0
  9
$AUNITS
 70
     0
  9
$AUPREC
 70
     0
  9
$MENU
  1
.
  9
$ELEVATION
 40
0.0
  9
$PELEVATION
 40
0.0
  9
$THICKNESS
 40
0.0
  9
$LIMCHECK
 70
     0
  9
$BLIPMODE
 70
     0
  9
$CHAMFERA
 40
0.0
  9
$CHAMFERB
 40
0.0
  9
$SKPOLY
 70
     0
  9
$TDCREATE
 40
2457375.563164745
  9
$TDUPDATE
 40
2457378.9861424081
  9
$TDINDWG
 40
0.0001246528
  9
$TDUSRTIMER
 40
0.0001246528
  9
$USRTIMER
 70
     1
  9
$ANGBASE
 50
0.0
  9
$ANGDIR
 70
     0
  9
$PDMODE
 70
     0
  9
$PDSIZE
 40
0.0
  9
$PLINEWID
 40
0.0
  9
$COORDS
 70
     2
  9
$SPLFRAME
 70
     0
  9
$SPLINETYPE
 70
     6
  9
$SPLINESEGS
 70
     8
  9
$ATTDIA
 70
     0
  9
$ATTREQ
 70
     0
  9
$HANDLING
 70
     1
  9
$HANDSEED
  5
253
  9
$SURFTAB1
 70
     6
  9
$SURFTAB2
 70
     6
  9
$SURFTYPE
 70
     6
  9
$SURFU
 70
     6
  9
$SURFV
 70
     6
  9
$UCSNAME
  2

  9
$UCSORG
 10
0.0
 20
0.0
 30
0.0
  9
$UCSXDIR
 10
1.0
 20
0.0
 30
0.0
  9
$UCSYDIR
 10
0.0
 20
1.0
 30
0.0
  9
$PUCSNAME
  2

  9
$PUCSORG
 10
0.0
 20
0.0
 30
0.0
  9
$PUCSXDIR
 10
1.0
 20
0.0
 30
0.0
  9
$PUCSYDIR
 10
0.0
 20
1.0
 30
0.0
  9
$USERI1
 70
     0
  9
$USERI2
 70
     0
  9
$USERI3
 70
     0
  9
$USERI4
 70
     0
  9
$USERI5
 70
     0
  9
$USERR1
 40
0.0
  9
$USERR2
 40
0.0
  9
$USERR3
 40
0.0
  9
$USERR4
 40
0.0
  9
$USERR5
 40
0.0
  9
$WORLDVIEW
 70
     1
  9
$SHADEDGE
 70
     3
  9
$SHADEDIF
 70
    70
  9
$TILEMODE
 70
     1
  9
$MAXACTVP
 70
    64
  9
$PLIMCHECK
 70
     0
  9
$PEXTMIN
 10
0.0
 20
0.0
 30
0.0
  9
$PEXTMAX
 10
0.0
 20
0.0
 30
0.0
  9
$PLIMMIN
 10
0.0
 20
0.0
  9
$PLIMMAX
 10
12.0
 20
9.0
  9
$UNITMODE
 70
     0
  9
$VISRETAIN
 70
     1
  9
$PLINEGEN
 70
     0
  9
$PSLTSCALE
 70
     1
  0
ENDSEC
  0
SECTION
  2
TABLES
  0
TABLE
  2
VPORT
 70
     1
  0
VPORT
  2
*ACTIVE
 70
     0
 10
0.0
 20
0.0
 11
1.0
 21
1.0
 12
111.4808742085366
 22
41.63588384701653
 13
0.0
 23
0.0
 14
1.0
 24
1.0
 15
0.0
 25
0.0
 16
0.0
 26
0.0
 36
1.0
 17
0.0
 27
0.0
 37
0.0
 40
105.0084737771874
 41
1.7244755244755241
 42
50.0
 43
0.0
 44
0.0
 50
0.0
 51
0.0
 71
     0
 72
  1000
 73
     1
 74
     3
 75
     0
 76
     0
 77
     0
 78
     0
  0
ENDTAB
  0
TABLE
  2
LTYPE
 70
     1
  0
LTYPE
  2
CONTINUOUS
 70
     0
  3
Solid line
 72
    65
 73
     0
 40
0.0
  0
ENDTAB
  0
TABLE
  2
LAYER
 70
     5
  0
LAYER
  2
0
 70
     0
 62
     7
  6
CONTINUOUS
  0
LAYER
  2
DEFPOINTS
 70
     0
 62
     7
  6
CONTINUOUS
  0
ENDTAB
  0
TABLE
  2
STYLE
 70
     3
  0
STYLE
  2
STANDARD
 70
     0
 40
0.0
 41
1.0
 50
0.0
 71
     0
 42
0.2
  3
txt
  4

  0
STYLE
  2
ARIAL
 70
     0
 40
2.9505988023952101
 41
1.0
 50
0.0
 71
     0
 42
0.2
  3
txt
  4

  0
ENDTAB
  0
TABLE
  2
VIEW
 70
     0
  0
ENDTAB
  0
TABLE
  2
UCS
 70
     0
  0
ENDTAB
  0
TABLE
  2
APPID
 70
     5
  0
APPID
  2
ACAD
 70
     0
  0
APPID
  2
ACADANNOTATIVE
 70
     0
  0
APPID
  2
REVIT
 70
     0
  0
APPID
  2
ACAD_NAV_VCDISPLAY
 70
     0
  0
APPID
  2
ACAD_MLEADERVER
 70
     0
  0
ENDTAB
  0
TABLE
  2
DIMSTYLE
 70
     3
  0
DIMSTYLE
  2
STANDARD
 70
     0
  3

  4

  5

  6

  7

 40
1.0
 41
0.18
 42
0.0625
 43
0.38
 44
0.18
 45
0.0
 46
0.0
 47
0.0
 48
0.0
140
0.18
141
0.09
142
0.0
143
25.399999999999999
144
1.0
145
0.0
146
1.0
147
0.09
 71
     0
 72
     0
 73
     1
 74
     1
 75
     0
 76
     0
 77
     0
 78
     0
170
     0
171
     2
172
     0
173
     0
174
     0
175
     0
176
     0
177
     0
178
     0
  0
DIMSTYLE
  2
LINEAR
 70
     0
  3
<>
  4

  5

  6
OBLIQUE
  7
OBLIQUE
 40
304.80000000000001
 41
0.0065616797900262
 42
0.0065616797900262
 43
0.38
 44
0.0065616797900262
 45
0.01
 46
0.0
 47
0.0
 48
0.0
140
3.0
141
0.09
142
0.0
143
25.399999999999999
144
1.0
145
1.0
146
1.0
147
0.0065616797900262
 71
     0
 72
     0
 73
     0
 74
     0
 75
     0
 76
     0
 77
     1
 78
     0
170
     0
171
     2
172
     1
173
     1
174
     1
175
     0
176
     0
177
     0
178
     0
  0
ENDTAB
  0
ENDSEC
  0
SECTION
  2
BLOCKS
  0
BLOCK
  8
0
  2
$MODEL_SPACE
 70
     0
 10
0.0
 20
0.0
 30
0.0
  3
$MODEL_SPACE
  1

  0
ENDBLK
  5
72
  8
0
  0
BLOCK
 67
     1
  8
0
  2
$PAPER_SPACE
 70
     0
 10
0.0
 20
0.0
 30
0.0
  3
$PAPER_SPACE
  1

  0
ENDBLK
  5
76
 67
     1
  8
0
  0
BLOCK
  8
0
  2
_OBLIQUE
 70
     0
 10
0.0
 20
0.0
 30
0.0
  3
_OBLIQUE
  1

  0
LINE
  5
A0
  8
0
  6
BYBLOCK
 62
     0
 10
-0.5
 20
-0.5
 30
0.0
 11
0.5
 21
0.5
 31
0.0
  0
ENDBLK
  5
A2
  8
0
  0
BLOCK
  8
0
  2
DIMBLOCK1-REF__LEVEL
 70
     0
 10
0.0
 20
0.0
 30
0.0
  3
DIMBLOCK1-REF__LEVEL
  1

  0
LINE
  5
184
  8
0
 62
     0
 10
-6.1324232482372727
 20
93.515743264589375
 30
0.0
 11
-1.4083963444871941
 21
101.3778443145725
 31
0.0
  0
LINE
  5
185
  8
0
 62
     0
 10
-0.1356319639973051
 20
89.91250754136189
 30
0.0
 11
4.5883949397527672
 21
97.774608591345
 31
0.0
  0
LINE
  5
186
  8
0
 62
     0
 10
-2.4384724943073048
 20
99.663509713168281
 30
0.0
 11
-4.1528070957115304
 21
100.6935858629883
 31
0.0
  0
LINE
  5
187
  8
0
 62
     0
 10
3.558318789932656
 20
96.060273989940768
 30
0.0
 11
5.2726533913368883
 21
95.030197840120664
 31
0.0
  0
LINE
  5
188
  8
0
 62
     0
 10
-2.4384724943073048
 20
99.663509713168281
 30
0.0
 11
3.558318789932656
 21
96.060273989940768
 31
0.0
  0
INSERT
  5
189
  8
0
 62
     0
  2
_OBLIQUE
 10
-2.4384724943073048
 20
99.663509713168281
 30
0.0
 41
2.0
 42
2.0
 43
2.0
 50
329.0
  0
INSERT
  5
18A
  8
0
 62
     0
  2
_OBLIQUE
 10
3.558318789932656
 20
96.060273989940768
 30
0.0
 41
2.0
 42
2.0
 43
2.0
 50
149.0
  0
INSERT
  5
18B
  8
0
  2
*U13
 10
0.0
 20
0.0
 30
0.0
  0
POINT
  5
18C
  8
DEFPOINTS
 62
     0
 10
-7.1624993980573839
 20
91.801408663185157
 30
0.0
  0
POINT
  5
18D
  8
DEFPOINTS
 62
     0
 10
-1.1657081138174159
 20
88.198172939957658
 30
0.0
  0
POINT
  5
18E
  8
DEFPOINTS
 62
     0
 10
3.558318789932656
 20
96.060273989940768
 30
0.0
  0
ENDBLK
  5
9D
  8
0
  0
BLOCK
  8
0
  2
DIMBLOCK2-REF__LEVEL
 70
     0
 10
0.0
 20
0.0
 30
0.0
  3
DIMBLOCK2-REF__LEVEL
  1

  0
LINE
  5
17B
  8
0
 62
     0
 10
-9.053536549256016
 20
91.150272354270825
 30
0.0
 11
-20.46431412190034
 21
87.221226546902955
 31
0.0
  0
LINE
  5
17C
  8
0
 62
     0
 10
-1.8910371511984989
 20
70.348863691085825
 30
0.0
 11
-13.301814723842821
 21
66.419817883717954
 31
0.0
  0
LINE
  5
17D
  8
0
 62
     0
 10
-18.573276970701698
 20
87.872362855817272
 30
0.0
 11
-11.410777572644189
 21
67.070954192632271
 31
0.0
  0
INSERT
  5
17E
  8
0
 62
     0
  2
_OBLIQUE
 10
-18.573276970701698
 20
87.872362855817272
 30
0.0
 41
2.0
 42
2.0
 43
2.0
 50
109.0000000000001
  0
INSERT
  5
17F
  8
0
 62
     0
  2
_OBLIQUE
 10
-11.410777572644189
 20
67.070954192632271
 30
0.0
 41
2.0
 42
2.0
 43
2.0
 50
289.00000000000011
  0
INSERT
  5
180
  8
0
  2
*U12
 10
0.0
 20
0.0
 30
0.0
  0
POINT
  5
181
  8
DEFPOINTS
 62
     0
 10
-7.1624993980573839
 20
91.801408663185157
 30
0.0
  0
POINT
  5
182
  8
DEFPOINTS
 62
     0
 10
0.0000000000001315
 20
71.000000000000156
 30
0.0
  0
POINT
  5
183
  8
DEFPOINTS
 62
     0
 10
-11.410777572644189
 20
67.070954192632271
 30
0.0
  0
ENDBLK
  5
C0
  8
0
  0
BLOCK
  8
0
  2
DIMBLOCK3-REF__LEVEL
 70
     0
 10
0.0
 20
0.0
 30
0.0
  3
DIMBLOCK3-REF__LEVEL
  1

  0
LINE
  5
172
  8
0
 62
     0
 10
-22.65498574670951
 20
0.000000000000004
 30
0.0
 11
-21.24077218433635
 21
0.0000000000000036
 31
0.0
  0
LINE
  5
173
  8
0
 62
     0
 10
-22.654985746709421
 20
71.000000000000327
 30
0.0
 11
-21.240772184336329
 21
71.000000000000327
 31
0.0
  0
LINE
  5
174
  8
0
 62
     0
 10
-23.24077218433635
 20
0.0000000000000042
 30
0.0
 11
-23.240772184336329
 21
71.000000000000327
 31
0.0
  0
INSERT
  5
175
  8
0
 62
     0
  2
_OBLIQUE
 10
-23.24077218433635
 20
0.0000000000000042
 30
0.0
 41
2.0
 42
2.0
 43
2.0
 50
270.0
  0
INSERT
  5
176
  8
0
 62
     0
  2
_OBLIQUE
 10
-23.240772184336329
 20
71.000000000000327
 30
0.0
 41
2.0
 42
2.0
 43
2.0
 50
90.0
  0
INSERT
  5
177
  8
0
  2
*U11
 10
0.0
 20
0.0
 30
0.0
  0
POINT
  5
178
  8
DEFPOINTS
 62
     0
 10
-24.65498574670951
 20
0.0000000000000046
 30
0.0
  0
POINT
  5
179
  8
DEFPOINTS
 62
     0
 10
-24.654985746709428
 20
71.000000000000327
 30
0.0
  0
POINT
  5
17A
  8
DEFPOINTS
 62
     0
 10
-23.240772184336329
 20
71.000000000000327
 30
0.0
  0
ENDBLK
  5
DA
  8
0
  0
BLOCK
  8
0
  2
DIMBLOCK4-REF__LEVEL
 70
     0
 10
0.0
 20
0.0
 30
0.0
  3
DIMBLOCK4-REF__LEVEL
  1

  0
LINE
  5
167
  8
0
 62
     0
 10
93.515743264589375
 20
-6.1324232482373944
 30
0.0
 11
101.3778443145725
 21
-1.4083963444873291
 31
0.0
  0
LINE
  5
168
  8
0
 62
     0
 10
89.912507541361904
 20
-0.1356319639974259
 30
0.0
 11
97.774608591345014
 21
4.5883949397526322
 31
0.0
  0
LINE
  5
169
  8
0
 62
     0
 10
99.663509713168281
 20
-2.4384724943074332
 30
0.0
 11
100.6935858629883
 21
-4.1528070957116583
 31
0.0
  0
LINE
  5
16A
  8
0
 62
     0
 10
96.060273989940796
 20
3.5583187899325281
 30
0.0
 11
95.030197840120692
 21
5.2726533913367533
 31
0.0
  0
LINE
  5
16B
  8
0
 62
     0
 10
99.663509713168281
 20
-2.4384724943074332
 30
0.0
 11
96.060273989940796
 21
3.5583187899325281
 31
0.0
  0
INSERT
  5
16C
  8
0
 62
     0
  2
_OBLIQUE
 10
99.663509713168281
 20
-2.4384724943074332
 30
0.0
 41
2.0
 42
2.0
 43
2.0
 50
120.9999999999998
  0
INSERT
  5
16D
  8
0
 62
     0
  2
_OBLIQUE
 10
96.060273989940796
 20
3.5583187899325281
 30
0.0
 41
2.0
 42
2.0
 43
2.0
 50
300.99999999999977
  0
INSERT
  5
16E
  8
0
  2
*U10
 10
0.0
 20
0.0
 30
0.0
  0
POINT
  5
16F
  8
DEFPOINTS
 62
     0
 10
91.801408663185157
 20
-7.1624993980574976
 30
0.0
  0
POINT
  5
170
  8
DEFPOINTS
 62
     0
 10
88.198172939957658
 20
-1.16570811381753
 30
0.0
  0
POINT
  5
171
  8
DEFPOINTS
 62
     0
 10
96.060273989940796
 20
3.5583187899325281
 30
0.0
  0
ENDBLK
  5
F4
  8
0
  0
BLOCK
  8
0
  2
DIMBLOCK5-REF__LEVEL
 70
     0
 10
0.0
 20
0.0
 30
0.0
  3
DIMBLOCK5-REF__LEVEL
  1

  0
LINE
  5
15E
  8
0
 62
     0
 10
91.150272354270811
 20
-9.0535365492561297
 30
0.0
 11
87.221226546902898
 21
-20.464314121900468
 31
0.0
  0
LINE
  5
15F
  8
0
 62
     0
 10
70.348863691086507
 20
-1.8910371511988371
 30
0.0
 11
66.419817883718608
 21
-13.301814723843149
 31
0.0
  0
LINE
  5
160
  8
0
 62
     0
 10
87.872362855817215
 20
-18.57327697070183
 30
0.0
 11
67.070954192632925
 21
-11.41077757264452
 31
0.0
  0
INSERT
  5
161
  8
0
 62
     0
  2
_OBLIQUE
 10
87.872362855817215
 20
-18.57327697070183
 30
0.0
 41
2.0
 42
2.0
 43
2.0
 50
340.99999999999977
  0
INSERT
  5
162
  8
0
 62
     0
  2
_OBLIQUE
 10
67.070954192632925
 20
-11.41077757264452
 30
0.0
 41
2.0
 42
2.0
 43
2.0
 50
160.99999999999969
  0
INSERT
  5
163
  8
0
  2
*U9
 10
0.0
 20
0.0
 30
0.0
  0
POINT
  5
164
  8
DEFPOINTS
 62
     0
 10
91.801408663185128
 20
-7.1624993980574976
 30
0.0
  0
POINT
  5
165
  8
DEFPOINTS
 62
     0
 10
71.000000000000838
 20
-0.0000000000002061
 30
0.0
  0
POINT
  5
166
  8
DEFPOINTS
 62
     0
 10
67.070954192632925
 20
-11.41077757264452
 30
0.0
  0
ENDBLK
  5
110
  8
0
  0
BLOCK
  8
0
  2
DIMBLOCK6-REF__LEVEL
 70
     0
 10
0.0
 20
0.0
 30
0.0
  3
DIMBLOCK6-REF__LEVEL
  1

  0
LINE
  5
155
  8
0
 62
     0
 10
-0.0000000000000001
 20
-21.215376768484489
 30
0.0
 11
-0.0000000000000002
 21
-22.629590330857582
 31
0.0
  0
LINE
  5
156
  8
0
 62
     0
 10
70.999999999999844
 20
-21.215376768484539
 30
0.0
 11
70.999999999999844
 21
-22.629590330857582
 31
0.0
  0
LINE
  5
157
  8
0
 62
     0
 10
-0.0000000000000001
 20
-20.629590330857582
 30
0.0
 11
70.999999999999844
 21
-20.629590330857582
 31
0.0
  0
INSERT
  5
158
  8
0
 62
     0
  2
_OBLIQUE
 10
-0.0000000000000001
 20
-20.629590330857582
 30
0.0
 41
2.0
 42
2.0
 43
2.0
 50
180.0
  0
INSERT
  5
159
  8
0
 62
     0
  2
_OBLIQUE
 10
70.999999999999844
 20
-20.629590330857582
 30
0.0
 41
2.0
 42
2.0
 43
2.0
  0
INSERT
  5
15A
  8
0
  2
*U8
 10
0.0
 20
0.0
 30
0.0
  0
POINT
  5
15B
  8
DEFPOINTS
 62
     0
 10
0.0
 20
-19.215376768484479
 30
0.0
  0
POINT
  5
15C
  8
DEFPOINTS
 62
     0
 10
70.999999999999844
 20
-19.215376768484528
 30
0.0
  0
POINT
  5
15D
  8
DEFPOINTS
 62
     0
 10
70.999999999999844
 20
-20.629590330857582
 30
0.0
  0
ENDBLK
  5
12A
  8
0
  0
BLOCK
  8
0
  2
*U8
 70
     1
 10
0.0
 20
0.0
 30
0.0
  3
*U8
  1

  0
TEXT
  5
23C
  8
0
 62
     0
 10
30.343496499497508
 20
-18.573235101343901
 30
0.0
 40
2.9505988023952101
  1
71.00
  7
ARIAL
  0
ENDBLK
  5
23E
  8
0
  0
BLOCK
  8
0
  2
*U9
 70
     1
 10
0.0
 20
0.0
 30
0.0
  3
*U9
  1

  0
TEXT
  5
240
  8
0
 62
     0
 10
73.300778561775445
 20
-11.381034310285139
 30
0.0
 40
2.9505988023952101
  1
22.00
 50
340.99999999999977
  7
ARIAL
  0
ENDBLK
  5
242
  8
0
  0
BLOCK
  8
0
  2
*U10
 70
     1
 10
0.0
 20
0.0
 30
0.0
  3
*U10
  1

  0
TEXT
  5
244
  8
0
 62
     0
 10
97.559086253179018
 20
5.0565038856836066
 30
0.0
 40
2.9505988023952101
  1
7.00
 50
300.99999999999977
  7
ARIAL
  0
ENDBLK
  5
246
  8
0
  0
BLOCK
  8
0
  2
*U11
 70
     1
 10
0.0
 20
0.0
 30
0.0
  3
*U11
  1

  0
TEXT
  5
248
  8
0
 62
     0
 10
-25.297127413850031
 20
30.343496499497761
 30
0.0
 40
2.9505988023952101
  1
71.00
 50
90.0
  7
ARIAL
  0
ENDBLK
  5
24A
  8
0
  0
BLOCK
  8
0
  2
*U12
 70
     1
 10
0.0
 20
0.0
 30
0.0
  3
*U12
  1

  0
TEXT
  5
24C
  8
0
 62
     0
 10
-14.71437609798901
 20
82.981506040636617
 30
0.0
 40
2.9505988023952101
  1
22.00
 50
289.00000000000011
  7
ARIAL
  0
ENDBLK
  5
24E
  8
0
  0
BLOCK
  8
0
  2
*U13
 70
     1
 10
0.0
 20
0.0
 30
0.0
  3
*U13
  1

  0
TEXT
  5
250
  8
0
 62
     0
 10
-1.8184551125784549
 20
101.6899783726639
 30
0.0
 40
2.9505988023952101
  1
7.00
 50
329.0
  7
ARIAL
  0
ENDBLK
  5
252
  8
0
  0
ENDSEC
  0
SECTION
  2
ENTITIES
  0
LINE
  5
88
  8
0
 10
0.0
 20
0.0
 30
0.0
 11
0.0000000000001142
 21
71.000000000000185
 31
0.0
1001
REVIT
1002
{
1070
     1
1000
255076
1002
}
1002
{
1070
     2
1000
-2002000
1002
}
1002
{
1070
     3
1000
206783
1002
}
  0
LINE
  5
89
  8
0
 10
0.0
 20
0.0
 30
0.0
 11
71.000000000000867
 21
-0.0000000000002284
 31
0.0
1001
REVIT
1002
{
1070
     1
1000
255080
1002
}
1002
{
1070
     2
1000
-2002000
1002
}
1002
{
1070
     3
1000
206783
1002
}
  0
LINE
  5
8A
  8
0
 10
0.0000000000001277
 20
71.000000000000156
 30
0.0
 11
-7.162499398057375
 21
91.801408663185171
 31
0.0
1001
REVIT
1002
{
1070
     1
1000
255084
1002
}
1002
{
1070
     2
1000
-2002000
1002
}
1002
{
1070
     3
1000
206783
1002
}
  0
LINE
  5
8B
  8
0
 10
-7.1624993980573821
 20
91.801408663185157
 30
0.0
 11
-1.165708113817413
 21
88.198172939957658
 31
0.0
1001
REVIT
1002
{
1070
     1
1000
255085
1002
}
1002
{
1070
     2
1000
-2002000
1002
}
1002
{
1070
     3
1000
206783
1002
}
  0
LINE
  5
8C
  8
0
 10
71.000000000000838
 20
-0.0000000000002065
 30
0.0
 11
91.801408663185157
 21
-7.1624993980575011
 31
0.0
1001
REVIT
1002
{
1070
     1
1000
255089
1002
}
1002
{
1070
     2
1000
-2002000
1002
}
1002
{
1070
     3
1000
206783
1002
}
  0
LINE
  5
8D
  8
0
 10
91.801408663185157
 20
-7.162499398057502
 30
0.0
 11
88.198172939957658
 21
-1.165708113817538
 31
0.0
1001
REVIT
1002
{
1070
     1
1000
255090
1002
}
1002
{
1070
     2
1000
-2002000
1002
}
1002
{
1070
     3
1000
206783
1002
}
  0
ENDSEC
  0
EOF
