  0
SECTION
  2
HEADER
  9
$ACADVER
  1
AC1009
  9
$INSBASE
 10
0.0
 20
0.0
 30
0.0
  9
$EXTMIN
 10
-26.016539417103761
 20
-75.999999999999716
 30
0.0
  9
$EXTMAX
 10
56.415865940876799
 20
19.859369222395799
 30
0.0
  9
$LIMMIN
 10
0.0
 20
0.0
  9
$LIMMAX
 10
12.0
 20
9.0
  9
$ORTHOMODE
 70
     0
  9
$REGENMODE
 70
     1
  9
$FILLMODE
 70
     1
  9
$QTEXTMODE
 70
     0
  9
$MIRRTEXT
 70
     0
  9
$DRAGMODE
 70
     2
  9
$LTSCALE
 40
1.0
  9
$OSMODE
 70
   127
  9
$ATTMODE
 70
     1
  9
$TEXTSIZE
 40
0.2
  9
$TRACEWID
 40
0.05
  9
$TEXTSTYLE
  7
STANDARD
  9
$CLAYER
  8
0
  9
$CELTYPE
  6
BYLAYER
  9
$CECOLOR
 62
   256
  9
$DIMSCALE
 40
1.0
  9
$DIMASZ
 40
0.18
  9
$DIMEXO
 40
0.0625
  9
$DIMDLI
 40
0.38
  9
$DIMRND
 40
0.0
  9
$DIMDLE
 40
0.0
  9
$DIMEXE
 40
0.18
  9
$DIMTP
 40
0.0
  9
$DIMTM
 40
0.0
  9
$DIMTXT
 40
0.18
  9
$DIMCEN
 40
0.09
  9
$DIMTSZ
 40
0.0
  9
$DIMTOL
 70
     0
  9
$DIMLIM
 70
     0
  9
$DIMTIH
 70
     1
  9
$DIMTOH
 70
     1
  9
$DIMSE1
 70
     0
  9
$DIMSE2
 70
     0
  9
$DIMTAD
 70
     0
  9
$DIMZIN
 70
     0
  9
$DIMBLK
  1

  9
$DIMASO
 70
     1
  9
$DIMSHO
 70
     1
  9
$DIMPOST
  1

  9
$DIMAPOST
  1

  9
$DIMALT
 70
     0
  9
$DIMALTD
 70
     2
  9
$DIMALTF
 40
25.399999999999999
  9
$DIMLFAC
 40
1.0
  9
$DIMTOFL
 70
     0
  9
$DIMTVP
 40
0.0
  9
$DIMTIX
 70
     0
  9
$DIMSOXD
 70
     0
  9
$DIMSAH
 70
     0
  9
$DIMBLK1
  1

  9
$DIMBLK2
  1

  9
$DIMSTYLE
  2
STANDARD
  9
$DIMCLRD
 70
     0
  9
$DIMCLRE
 70
     0
  9
$DIMCLRT
 70
     0
  9
$DIMTFAC
 40
1.0
  9
$DIMGAP
 40
0.09
  9
$LUNITS
 70
     2
  9
$LUPREC
 70
     4
  9
$SKETCHINC
 40
0.1
  9
$FILLETRAD
 40
0.0
  9
$AUNITS
 70
     0
  9
$AUPREC
 70
     0
  9
$MENU
  1
.
  9
$ELEVATION
 40
0.0
  9
$PELEVATION
 40
0.0
  9
$THICKNESS
 40
0.0
  9
$LIMCHECK
 70
     0
  9
$BLIPMODE
 70
     0
  9
$CHAMFERA
 40
0.0
  9
$CHAMFERB
 40
0.0
  9
$SKPOLY
 70
     0
  9
$TDCREATE
 40
2457375.5628265389
  9
$TDUPDATE
 40
2457378.985367442
  9
$TDINDWG
 40
0.0001190162
  9
$TDUSRTIMER
 40
0.0001190162
  9
$USRTIMER
 70
     1
  9
$ANGBASE
 50
0.0
  9
$ANGDIR
 70
     0
  9
$PDMODE
 70
     0
  9
$PDSIZE
 40
0.0
  9
$PLINEWID
 40
0.0
  9
$COORDS
 70
     2
  9
$SPLFRAME
 70
     0
  9
$SPLINETYPE
 70
     6
  9
$SPLINESEGS
 70
     8
  9
$ATTDIA
 70
     0
  9
$ATTREQ
 70
     0
  9
$HANDLING
 70
     1
  9
$HANDSEED
  5
22B
  9
$SURFTAB1
 70
     6
  9
$SURFTAB2
 70
     6
  9
$SURFTYPE
 70
     6
  9
$SURFU
 70
     6
  9
$SURFV
 70
     6
  9
$UCSNAME
  2

  9
$UCSORG
 10
0.0
 20
0.0
 30
0.0
  9
$UCSXDIR
 10
1.0
 20
0.0
 30
0.0
  9
$UCSYDIR
 10
0.0
 20
1.0
 30
0.0
  9
$PUCSNAME
  2

  9
$PUCSORG
 10
0.0
 20
0.0
 30
0.0
  9
$PUCSXDIR
 10
1.0
 20
0.0
 30
0.0
  9
$PUCSYDIR
 10
0.0
 20
1.0
 30
0.0
  9
$USERI1
 70
     0
  9
$USERI2
 70
     0
  9
$USERI3
 70
     0
  9
$USERI4
 70
     0
  9
$USERI5
 70
     0
  9
$USERR1
 40
0.0
  9
$USERR2
 40
0.0
  9
$USERR3
 40
0.0
  9
$USERR4
 40
0.0
  9
$USERR5
 40
0.0
  9
$WORLDVIEW
 70
     1
  9
$SHADEDGE
 70
     3
  9
$SHADEDIF
 70
    70
  9
$TILEMODE
 70
     1
  9
$MAXACTVP
 70
    64
  9
$PLIMCHECK
 70
     0
  9
$PEXTMIN
 10
0.0
 20
0.0
 30
0.0
  9
$PEXTMAX
 10
0.0
 20
0.0
 30
0.0
  9
$PLIMMIN
 10
0.0
 20
0.0
  9
$PLIMMAX
 10
12.0
 20
9.0
  9
$UNITMODE
 70
     0
  9
$VISRETAIN
 70
     1
  9
$PLINEGEN
 70
     0
  9
$PSLTSCALE
 70
     1
  0
ENDSEC
  0
SECTION
  2
TABLES
  0
TABLE
  2
VPORT
 70
     1
  0
VPORT
  2
*ACTIVE
 70
     0
 10
0.0
 20
0.0
 11
1.0
 21
1.0
 12
80.240379837852885
 22
-28.522031732647928
 13
0.0
 23
0.0
 14
1.0
 24
1.0
 15
0.0
 25
0.0
 16
0.0
 26
0.0
 36
1.0
 17
0.0
 27
0.0
 37
0.0
 40
78.804261733328829
 41
1.7244755244755241
 42
50.0
 43
0.0
 44
0.0
 50
0.0
 51
0.0
 71
     0
 72
  1000
 73
     1
 74
     3
 75
     0
 76
     0
 77
     0
 78
     0
  0
ENDTAB
  0
TABLE
  2
LTYPE
 70
     1
  0
LTYPE
  2
CONTINUOUS
 70
     0
  3
Solid line
 72
    65
 73
     0
 40
0.0
  0
ENDTAB
  0
TABLE
  2
LAYER
 70
     5
  0
LAYER
  2
0
 70
     0
 62
     7
  6
CONTINUOUS
  0
LAYER
  2
DEFPOINTS
 70
     0
 62
     7
  6
CONTINUOUS
  0
ENDTAB
  0
TABLE
  2
STYLE
 70
     3
  0
STYLE
  2
STANDARD
 70
     0
 40
0.0
 41
1.0
 50
0.0
 71
     0
 42
0.2
  3
txt
  4

  0
STYLE
  2
ARIAL
 70
     0
 40
2.9505988023952101
 41
1.0
 50
0.0
 71
     0
 42
0.2
  3
txt
  4

  0
ENDTAB
  0
TABLE
  2
VIEW
 70
     0
  0
ENDTAB
  0
TABLE
  2
UCS
 70
     0
  0
ENDTAB
  0
TABLE
  2
APPID
 70
     5
  0
APPID
  2
ACAD
 70
     0
  0
APPID
  2
ACADANNOTATIVE
 70
     0
  0
APPID
  2
REVIT
 70
     0
  0
APPID
  2
ACAD_NAV_VCDISPLAY
 70
     0
  0
APPID
  2
ACAD_MLEADERVER
 70
     0
  0
ENDTAB
  0
TABLE
  2
DIMSTYLE
 70
     3
  0
DIMSTYLE
  2
STANDARD
 70
     0
  3

  4

  5

  6

  7

 40
1.0
 41
0.18
 42
0.0625
 43
0.38
 44
0.18
 45
0.0
 46
0.0
 47
0.0
 48
0.0
140
0.18
141
0.09
142
0.0
143
25.399999999999999
144
1.0
145
0.0
146
1.0
147
0.09
 71
     0
 72
     0
 73
     1
 74
     1
 75
     0
 76
     0
 77
     0
 78
     0
170
     0
171
     2
172
     0
173
     0
174
     0
175
     0
176
     0
177
     0
178
     0
  0
DIMSTYLE
  2
LINEAR
 70
     0
  3
<>
  4

  5

  6
OBLIQUE
  7
OBLIQUE
 40
304.80000000000001
 41
0.0065616797900262
 42
0.0065616797900262
 43
0.38
 44
0.0065616797900262
 45
0.01
 46
0.0
 47
0.0
 48
0.0
140
3.0
141
0.09
142
0.0
143
25.399999999999999
144
1.0
145
1.0
146
1.0
147
0.0065616797900262
 71
     0
 72
     0
 73
     0
 74
     0
 75
     0
 76
     0
 77
     1
 78
     0
170
     0
171
     2
172
     1
173
     1
174
     1
175
     0
176
     0
177
     0
178
     0
  0
ENDTAB
  0
ENDSEC
  0
SECTION
  2
BLOCKS
  0
BLOCK
  8
0
  2
$MODEL_SPACE
 70
     0
 10
0.0
 20
0.0
 30
0.0
  3
$MODEL_SPACE
  1

  0
ENDBLK
  5
72
  8
0
  0
BLOCK
 67
     1
  8
0
  2
$PAPER_SPACE
 70
     0
 10
0.0
 20
0.0
 30
0.0
  3
$PAPER_SPACE
  1

  0
ENDBLK
  5
76
 67
     1
  8
0
  0
BLOCK
  8
0
  2
_OBLIQUE
 70
     0
 10
0.0
 20
0.0
 30
0.0
  3
_OBLIQUE
  1

  0
LINE
  5
9F
  8
0
  6
BYBLOCK
 62
     0
 10
-0.5
 20
-0.5
 30
0.0
 11
0.5
 21
0.5
 31
0.0
  0
ENDBLK
  5
A1
  8
0
  0
BLOCK
  8
0
  2
DIMBLOCK1-REF__LEVEL
 70
     0
 10
0.0
 20
0.0
 30
0.0
  3
DIMBLOCK1-REF__LEVEL
  1

  0
LINE
  5
162
  8
0
 62
     0
 10
-2.0000000000001221
 20
-74.99999999999973
 30
0.0
 11
-21.408095071667251
 21
-74.99999999999973
 31
0.0
  0
LINE
  5
163
  8
0
 62
     0
 10
-18.822308634040329
 20
-0.0000000000000006
 30
0.0
 11
-17.40809507166724
 21
-0.000000000000001
 31
0.0
  0
LINE
  5
164
  8
0
 62
     0
 10
-19.408095071667251
 20
-74.99999999999973
 30
0.0
 11
-19.40809507166724
 21
-0.0000000000000004
 31
0.0
  0
INSERT
  5
165
  8
0
 62
     0
  2
_OBLIQUE
 10
-19.408095071667251
 20
-74.99999999999973
 30
0.0
 41
2.0
 42
2.0
 43
2.0
 50
270.0
  0
INSERT
  5
166
  8
0
 62
     0
  2
_OBLIQUE
 10
-19.40809507166724
 20
-0.0000000000000004
 30
0.0
 41
2.0
 42
2.0
 43
2.0
 50
90.0
  0
INSERT
  5
167
  8
0
  2
*U11
 10
0.0
 20
0.0
 30
0.0
  0
POINT
  5
168
  8
DEFPOINTS
 62
     0
 10
-0.0000000000001227
 20
-74.99999999999973
 30
0.0
  0
POINT
  5
169
  8
DEFPOINTS
 62
     0
 10
-20.822308634040329
 20
0.0
 30
0.0
  0
POINT
  5
16A
  8
DEFPOINTS
 62
     0
 10
-19.40809507166724
 20
-0.0000000000000004
 30
0.0
  0
ENDBLK
  5
9C
  8
0
  0
BLOCK
  8
0
  2
DIMBLOCK2-REF__LEVEL
 70
     0
 10
0.0
 20
0.0
 30
0.0
  3
DIMBLOCK2-REF__LEVEL
  1

  0
LINE
  5
159
  8
0
 62
     0
 10
0.5176380902050479
 20
1.9318516525781371
 30
0.0
 11
4.9485367194360146
 21
18.46819046005518
 31
0.0
  0
LINE
  5
15A
  8
0
 62
     0
 10
34.32504201032242
 20
-7.1268149260101934
 30
0.0
 11
38.75594063955338
 21
9.4095238814668392
 31
0.0
  0
LINE
  5
15B
  8
0
 62
     0
 10
4.4308986292309669
 20
16.536338807477041
 30
0.0
 11
38.238302549348333
 21
7.4776722288887054
 31
0.0
  0
INSERT
  5
15C
  8
0
 62
     0
  2
_OBLIQUE
 10
4.4308986292309669
 20
16.536338807477041
 30
0.0
 41
2.0
 42
2.0
 43
2.0
 50
164.9999999999998
  0
INSERT
  5
15D
  8
0
 62
     0
  2
_OBLIQUE
 10
38.238302549348333
 20
7.4776722288887054
 30
0.0
 41
2.0
 42
2.0
 43
2.0
 50
344.99999999999977
  0
INSERT
  5
15E
  8
0
  2
*U10
 10
0.0
 20
0.0
 30
0.0
  0
POINT
  5
15F
  8
DEFPOINTS
 62
     0
 10
0.0
 20
0.0000000000000021
 30
0.0
  0
POINT
  5
160
  8
DEFPOINTS
 62
     0
 10
33.807403920117373
 20
-9.058666578588328
 30
0.0
  0
POINT
  5
161
  8
DEFPOINTS
 62
     0
 10
38.238302549348333
 20
7.4776722288887054
 30
0.0
  0
ENDBLK
  5
BD
  8
0
  0
BLOCK
  8
0
  2
DIMBLOCK3-REF__LEVEL
 70
     0
 10
0.0
 20
0.0
 30
0.0
  3
DIMBLOCK3-REF__LEVEL
  1

  0
LINE
  5
150
  8
0
 62
     0
 10
35.807403920117373
 20
-9.058666578588328
 30
0.0
 11
56.41586594087677
 21
-9.0586665785883351
 31
0.0
  0
LINE
  5
151
  8
0
 62
     0
 10
35.807403920117338
 20
-32.058666578588323
 30
0.0
 11
56.41586594087677
 21
-32.05866657858833
 31
0.0
  0
LINE
  5
152
  8
0
 62
     0
 10
54.41586594087677
 20
-9.0586665785883351
 30
0.0
 11
54.41586594087677
 21
-32.05866657858833
 31
0.0
  0
INSERT
  5
153
  8
0
 62
     0
  2
_OBLIQUE
 10
54.41586594087677
 20
-9.0586665785883351
 30
0.0
 41
2.0
 42
2.0
 43
2.0
 50
90.0
  0
INSERT
  5
154
  8
0
 62
     0
  2
_OBLIQUE
 10
54.41586594087677
 20
-32.05866657858833
 30
0.0
 41
2.0
 42
2.0
 43
2.0
 50
270.0
  0
INSERT
  5
155
  8
0
  2
*U9
 10
0.0
 20
0.0
 30
0.0
  0
POINT
  5
156
  8
DEFPOINTS
 62
     0
 10
33.80740392011738
 20
-9.058666578588328
 30
0.0
  0
POINT
  5
157
  8
DEFPOINTS
 62
     0
 10
33.807403920117338
 20
-32.058666578588323
 30
0.0
  0
POINT
  5
158
  8
DEFPOINTS
 62
     0
 10
54.41586594087677
 20
-32.05866657858833
 30
0.0
  0
ENDBLK
  5
D7
  8
0
  0
BLOCK
  8
0
  2
DIMBLOCK4-REF__LEVEL
 70
     0
 10
0.0
 20
0.0
 30
0.0
  3
DIMBLOCK4-REF__LEVEL
  1

  0
LINE
  5
145
  8
0
 62
     0
 10
35.44570800869532
 20
-30.91151370588625
 30
0.0
 11
41.031539657697138
 21
-27.000272278084811
 31
0.0
  0
LINE
  5
146
  8
0
 62
     0
 10
41.181472372205768
 20
-39.103034148776167
 30
0.0
 11
46.767304021207593
 21
-35.191792720974732
 31
0.0
  0
LINE
  5
147
  8
0
 62
     0
 10
39.39323556911917
 20
-28.147425150786901
 30
0.0
 11
38.246082696417069
 21
-26.509121062208919
 31
0.0
  0
LINE
  5
148
  8
0
 62
     0
 10
45.128999932629597
 20
-36.338945593676833
 30
0.0
 11
46.276152805331691
 21
-37.977249682254822
 31
0.0
  0
LINE
  5
149
  8
0
 62
     0
 10
39.39323556911917
 20
-28.147425150786901
 30
0.0
 11
45.128999932629597
 21
-36.338945593676833
 31
0.0
  0
INSERT
  5
14A
  8
0
 62
     0
  2
_OBLIQUE
 10
39.39323556911917
 20
-28.147425150786901
 30
0.0
 41
2.0
 42
2.0
 43
2.0
 50
304.99999999999977
  0
INSERT
  5
14B
  8
0
 62
     0
  2
_OBLIQUE
 10
45.128999932629597
 20
-36.338945593676833
 30
0.0
 41
2.0
 42
2.0
 43
2.0
 50
124.9999999999999
  0
INSERT
  5
14C
  8
0
  2
*U8
 10
0.0
 20
0.0
 30
0.0
  0
POINT
  5
14D
  8
DEFPOINTS
 62
     0
 10
33.807403920117338
 20
-32.058666578588337
 30
0.0
  0
POINT
  5
14E
  8
DEFPOINTS
 62
     0
 10
39.543168283627793
 20
-40.250187021478247
 30
0.0
  0
POINT
  5
14F
  8
DEFPOINTS
 62
     0
 10
45.128999932629597
 20
-36.338945593676833
 30
0.0
  0
ENDBLK
  5
F1
  8
0
  0
BLOCK
  8
0
  2
DIMBLOCK5-REF__LEVEL
 70
     0
 10
0.0
 20
0.0
 30
0.0
  3
DIMBLOCK5-REF__LEVEL
  1

  0
LINE
  5
13A
  8
0
 62
     0
 10
34.954556792819389
 20
-45.904716554780848
 30
0.0
 11
41.25105896867737
 21
-54.897053586679881
 31
0.0
  0
LINE
  5
13B
  8
0
 62
     0
 10
40.690321156329873
 20
-41.888491110056229
 30
0.0
 11
46.986823332187853
 21
-50.880828141955263
 31
0.0
  0
LINE
  5
13C
  8
0
 62
     0
 10
40.10390609597529
 20
-53.258749498101899
 30
0.0
 11
38.465602007397301
 21
-54.405902370803993
 31
0.0
  0
LINE
  5
13D
  8
0
 62
     0
 10
45.83967045948576
 20
-49.242524053377267
 30
0.0
 11
47.477974548063749
 21
-48.095371180675187
 31
0.0
  0
LINE
  5
13E
  8
0
 62
     0
 10
40.10390609597529
 20
-53.258749498101899
 30
0.0
 11
45.83967045948576
 21
-49.242524053377267
 31
0.0
  0
INSERT
  5
13F
  8
0
 62
     0
  2
_OBLIQUE
 10
40.10390609597529
 20
-53.258749498101899
 30
0.0
 41
2.0
 42
2.0
 43
2.0
 50
34.999999999999801
  0
INSERT
  5
140
  8
0
 62
     0
  2
_OBLIQUE
 10
45.83967045948576
 20
-49.242524053377267
 30
0.0
 41
2.0
 42
2.0
 43
2.0
 50
214.9999999999998
  0
INSERT
  5
141
  8
0
  2
*U7
 10
0.0
 20
0.0
 30
0.0
  0
POINT
  5
142
  8
DEFPOINTS
 62
     0
 10
33.807403920117302
 20
-44.266412466202858
 30
0.0
  0
POINT
  5
143
  8
DEFPOINTS
 62
     0
 10
39.543168283627793
 20
-40.250187021478247
 30
0.0
  0
POINT
  5
144
  8
DEFPOINTS
 62
     0
 10
45.83967045948576
 20
-49.242524053377267
 30
0.0
  0
ENDBLK
  5
10D
  8
0
  0
BLOCK
  8
0
  2
*U7
 70
     1
 10
0.0
 20
0.0
 30
0.0
  3
*U7
  1

  0
TEXT
  5
218
  8
0
 62
     0
 10
38.50728363531222
 20
-51.866370371076059
 30
0.0
 40
2.9505988023952101
  1
7.00
 50
34.999999999999808
  7
ARIAL
  0
ENDBLK
  5
21A
  8
0
  0
BLOCK
  8
0
  2
*U8
 70
     1
 10
0.0
 20
0.0
 30
0.0
  3
*U8
  1

  0
TEXT
  5
21C
  8
0
 62
     0
 10
40.915207367708057
 20
-26.735880205705019
 30
0.0
 40
2.9505988023952101
  1
10.00
 50
304.99999999999977
  7
ARIAL
  0
ENDBLK
  5
21E
  8
0
  0
BLOCK
  8
0
  2
*U9
 70
     1
 10
0.0
 20
0.0
 30
0.0
  3
*U9
  1

  0
TEXT
  5
220
  8
0
 62
     0
 10
52.35749802459474
 20
-25.677935373876331
 30
0.0
 40
2.9505988023952101
  1
23.00
 50
90.0
  7
ARIAL
  0
ENDBLK
  5
222
  8
0
  0
BLOCK
  8
0
  2
*U10
 70
     1
 10
0.0
 20
0.0
 30
0.0
  3
*U10
  1

  0
TEXT
  5
224
  8
0
 62
     0
 10
16.897238087079948
 20
15.32697249142125
 30
0.0
 40
2.9505988023952101
  1
35.00
 50
344.99999999999977
  7
ARIAL
  0
ENDBLK
  5
226
  8
0
  0
BLOCK
  8
0
  2
*U11
 70
     1
 10
0.0
 20
0.0
 30
0.0
  3
*U11
  1

  0
TEXT
  5
228
  8
0
 62
     0
 10
-21.464450301180921
 20
-42.656503500502261
 30
0.0
 40
2.9505988023952101
  1
75.00
 50
90.0
  7
ARIAL
  0
ENDBLK
  5
22A
  8
0
  0
ENDSEC
  0
SECTION
  2
ENTITIES
  0
LINE
  5
88
  8
0
 10
0.0
 20
0.0000000000000013
 30
0.0
 11
-0.0000000000001206
 21
-74.99999999999973
 31
0.0
1001
REVIT
1002
{
1070
     1
1000
251870
1002
}
1002
{
1070
     2
1000
-2002000
1002
}
1002
{
1070
     3
1000
206783
1002
}
  0
LINE
  5
89
  8
0
 10
0.0
 20
0.0000000000000013
 30
0.0
 11
33.80740392011738
 21
-9.0586665785883245
 31
0.0
1001
REVIT
1002
{
1070
     1
1000
251873
1002
}
1002
{
1070
     2
1000
-2002000
1002
}
1002
{
1070
     3
1000
206783
1002
}
  0
LINE
  5
8A
  8
0
 10
33.80740392011738
 20
-9.0586665785883262
 30
0.0
 11
33.807403920117338
 21
-32.058666578588323
 31
0.0
1001
REVIT
1002
{
1070
     1
1000
251874
1002
}
1002
{
1070
     2
1000
-2002000
1002
}
1002
{
1070
     3
1000
206783
1002
}
  0
LINE
  5
8B
  8
0
 10
33.807403920117338
 20
-32.05866657858833
 30
0.0
 11
39.543168283627793
 21
-40.250187021478247
 31
0.0
1001
REVIT
1002
{
1070
     1
1000
251878
1002
}
1002
{
1070
     2
1000
-2002000
1002
}
1002
{
1070
     3
1000
206783
1002
}
  0
LINE
  5
8C
  8
0
 10
39.543168283627793
 20
-40.250187021478247
 30
0.0
 11
33.807403920117309
 21
-44.266412466202873
 31
0.0
1001
REVIT
1002
{
1070
     1
1000
251879
1002
}
1002
{
1070
     2
1000
-2002000
1002
}
1002
{
1070
     3
1000
206783
1002
}
  0
ENDSEC
  0
EOF
