  0
SECTION
  2
HEADER
  9
$ACADVER
  1
AC1009
  9
$INSBASE
 10
0.0
 20
0.0
 30
0.0
  9
$EXTMIN
 10
-26.016539417103761
 20
-51.296015838200432
 30
0.0
  9
$EXTMAX
 10
120.9903281828696
 20
30.5179622095749
 30
0.0
  9
$LIMMIN
 10
0.0
 20
0.0
  9
$LIMMAX
 10
12.0
 20
9.0
  9
$ORTHOMODE
 70
     0
  9
$REGENMODE
 70
     1
  9
$FILLMODE
 70
     1
  9
$QTEXTMODE
 70
     0
  9
$MIRRTEXT
 70
     0
  9
$DRAGMODE
 70
     2
  9
$LTSCALE
 40
1.0
  9
$OSMODE
 70
   127
  9
$ATTMODE
 70
     1
  9
$TEXTSIZE
 40
0.2
  9
$TRACEWID
 40
0.05
  9
$TEXTSTYLE
  7
STANDARD
  9
$CLAYER
  8
0
  9
$CELTYPE
  6
BYLAYER
  9
$CECOLOR
 62
   256
  9
$DIMSCALE
 40
1.0
  9
$DIMASZ
 40
0.18
  9
$DIMEXO
 40
0.0625
  9
$DIMDLI
 40
0.38
  9
$DIMRND
 40
0.0
  9
$DIMDLE
 40
0.0
  9
$DIMEXE
 40
0.18
  9
$DIMTP
 40
0.0
  9
$DIMTM
 40
0.0
  9
$DIMTXT
 40
0.18
  9
$DIMCEN
 40
0.09
  9
$DIMTSZ
 40
0.0
  9
$DIMTOL
 70
     0
  9
$DIMLIM
 70
     0
  9
$DIMTIH
 70
     1
  9
$DIMTOH
 70
     1
  9
$DIMSE1
 70
     0
  9
$DIMSE2
 70
     0
  9
$DIMTAD
 70
     0
  9
$DIMZIN
 70
     0
  9
$DIMBLK
  1

  9
$DIMASO
 70
     1
  9
$DIMSHO
 70
     1
  9
$DIMPOST
  1

  9
$DIMAPOST
  1

  9
$DIMALT
 70
     0
  9
$DIMALTD
 70
     2
  9
$DIMALTF
 40
25.399999999999999
  9
$DIMLFAC
 40
1.0
  9
$DIMTOFL
 70
     0
  9
$DIMTVP
 40
0.0
  9
$DIMTIX
 70
     0
  9
$DIMSOXD
 70
     0
  9
$DIMSAH
 70
     0
  9
$DIMBLK1
  1

  9
$DIMBLK2
  1

  9
$DIMSTYLE
  2
STANDARD
  9
$DIMCLRD
 70
     0
  9
$DIMCLRE
 70
     0
  9
$DIMCLRT
 70
     0
  9
$DIMTFAC
 40
1.0
  9
$DIMGAP
 40
0.09
  9
$LUNITS
 70
     2
  9
$LUPREC
 70
     4
  9
$SKETCHINC
 40
0.1
  9
$FILLETRAD
 40
0.0
  9
$AUNITS
 70
     0
  9
$AUPREC
 70
     0
  9
$MENU
  1
.
  9
$ELEVATION
 40
0.0
  9
$PELEVATION
 40
0.0
  9
$THICKNESS
 40
0.0
  9
$LIMCHECK
 70
     0
  9
$BLIPMODE
 70
     0
  9
$CHAMFERA
 40
0.0
  9
$CHAMFERB
 40
0.0
  9
$SKPOLY
 70
     0
  9
$TDCREATE
 40
2457375.5627421178
  9
$TDUPDATE
 40
2457378.985166817
  9
$TDINDWG
 40
0.0001218981
  9
$TDUSRTIMER
 40
0.0001218981
  9
$USRTIMER
 70
     1
  9
$ANGBASE
 50
0.0
  9
$ANGDIR
 70
     0
  9
$PDMODE
 70
     0
  9
$PDSIZE
 40
0.0
  9
$PLINEWID
 40
0.0
  9
$COORDS
 70
     2
  9
$SPLFRAME
 70
     0
  9
$SPLINETYPE
 70
     6
  9
$SPLINESEGS
 70
     8
  9
$ATTDIA
 70
     0
  9
$ATTREQ
 70
     0
  9
$HANDLING
 70
     1
  9
$HANDSEED
  5
203
  9
$SURFTAB1
 70
     6
  9
$SURFTAB2
 70
     6
  9
$SURFTYPE
 70
     6
  9
$SURFU
 70
     6
  9
$SURFV
 70
     6
  9
$UCSNAME
  2

  9
$UCSORG
 10
0.0
 20
0.0
 30
0.0
  9
$UCSXDIR
 10
1.0
 20
0.0
 30
0.0
  9
$UCSYDIR
 10
0.0
 20
1.0
 30
0.0
  9
$PUCSNAME
  2

  9
$PUCSORG
 10
0.0
 20
0.0
 30
0.0
  9
$PUCSXDIR
 10
1.0
 20
0.0
 30
0.0
  9
$PUCSYDIR
 10
0.0
 20
1.0
 30
0.0
  9
$USERI1
 70
     0
  9
$USERI2
 70
     0
  9
$USERI3
 70
     0
  9
$USERI4
 70
     0
  9
$USERI5
 70
     0
  9
$USERR1
 40
0.0
  9
$USERR2
 40
0.0
  9
$USERR3
 40
0.0
  9
$USERR4
 40
0.0
  9
$USERR5
 40
0.0
  9
$WORLDVIEW
 70
     1
  9
$SHADEDGE
 70
     3
  9
$SHADEDIF
 70
    70
  9
$TILEMODE
 70
     1
  9
$MAXACTVP
 70
    64
  9
$PLIMCHECK
 70
     0
  9
$PEXTMIN
 10
0.0
 20
0.0
 30
0.0
  9
$PEXTMAX
 10
0.0
 20
0.0
 30
0.0
  9
$PLIMMIN
 10
0.0
 20
0.0
  9
$PLIMMAX
 10
12.0
 20
9.0
  9
$UNITMODE
 70
     0
  9
$VISRETAIN
 70
     1
  9
$PLINEGEN
 70
     0
  9
$PSLTSCALE
 70
     1
  0
ENDSEC
  0
SECTION
  2
TABLES
  0
TABLE
  2
VPORT
 70
     1
  0
VPORT
  2
*ACTIVE
 70
     0
 10
0.0
 20
0.0
 11
1.0
 21
1.0
 12
64.523154279191601
 22
-9.8852026992567943
 13
0.0
 23
0.0
 14
1.0
 24
1.0
 15
0.0
 25
0.0
 16
0.0
 26
0.0
 36
1.0
 17
0.0
 27
0.0
 37
0.0
 40
67.061453944309875
 41
1.7244755244755241
 42
50.0
 43
0.0
 44
0.0
 50
0.0
 51
0.0
 71
     0
 72
  1000
 73
     1
 74
     3
 75
     0
 76
     0
 77
     0
 78
     0
  0
ENDTAB
  0
TABLE
  2
LTYPE
 70
     1
  0
LTYPE
  2
CONTINUOUS
 70
     0
  3
Solid line
 72
    65
 73
     0
 40
0.0
  0
ENDTAB
  0
TABLE
  2
LAYER
 70
     5
  0
LAYER
  2
0
 70
     0
 62
     7
  6
CONTINUOUS
  0
LAYER
  2
DEFPOINTS
 70
     0
 62
     7
  6
CONTINUOUS
  0
ENDTAB
  0
TABLE
  2
STYLE
 70
     3
  0
STYLE
  2
STANDARD
 70
     0
 40
0.0
 41
1.0
 50
0.0
 71
     0
 42
0.2
  3
txt
  4

  0
STYLE
  2
ARIAL
 70
     0
 40
2.9505988023952101
 41
1.0
 50
0.0
 71
     0
 42
0.2
  3
txt
  4

  0
ENDTAB
  0
TABLE
  2
VIEW
 70
     0
  0
ENDTAB
  0
TABLE
  2
UCS
 70
     0
  0
ENDTAB
  0
TABLE
  2
APPID
 70
     5
  0
APPID
  2
ACAD
 70
     0
  0
APPID
  2
ACADANNOTATIVE
 70
     0
  0
APPID
  2
REVIT
 70
     0
  0
APPID
  2
ACAD_NAV_VCDISPLAY
 70
     0
  0
APPID
  2
ACAD_MLEADERVER
 70
     0
  0
ENDTAB
  0
TABLE
  2
DIMSTYLE
 70
     4
  0
DIMSTYLE
  2
STANDARD
 70
     0
  3

  4

  5

  6

  7

 40
1.0
 41
0.18
 42
0.0625
 43
0.38
 44
0.18
 45
0.0
 46
0.0
 47
0.0
 48
0.0
140
0.18
141
0.09
142
0.0
143
25.399999999999999
144
1.0
145
0.0
146
1.0
147
0.09
 71
     0
 72
     0
 73
     1
 74
     1
 75
     0
 76
     0
 77
     0
 78
     0
170
     0
171
     2
172
     0
173
     0
174
     0
175
     0
176
     0
177
     0
178
     0
  0
DIMSTYLE
  2
LINEAR
 70
     0
  3
<>
  4

  5

  6
OBLIQUE
  7
OBLIQUE
 40
304.80000000000001
 41
0.0065616797900262
 42
0.0065616797900262
 43
0.38
 44
0.0065616797900262
 45
0.01
 46
0.0
 47
0.0
 48
0.0
140
3.0
141
0.09
142
0.0
143
25.399999999999999
144
1.0
145
1.0
146
1.0
147
0.0065616797900262
 71
     0
 72
     0
 73
     0
 74
     0
 75
     0
 76
     0
 77
     1
 78
     0
170
     0
171
     2
172
     1
173
     1
174
     1
175
     0
176
     0
177
     0
178
     0
  0
DIMSTYLE
  2
ANGULAR
 70
     0
  3
<>
  4

  5

  6
OBLIQUE
  7
OBLIQUE
 40
304.80000000000001
 41
0.0065616797900262
 42
0.0065616797900262
 43
0.38
 44
0.0065616797900262
 45
0.0
 46
0.0
 47
0.0
 48
0.0
140
3.0
141
0.09
142
0.0
143
25.399999999999999
144
1.0
145
1.0
146
1.0
147
0.0065616797900262
 71
     0
 72
     0
 73
     0
 74
     0
 75
     0
 76
     0
 77
     1
 78
     0
170
     0
171
     2
172
     1
173
     1
174
     1
175
     0
176
     0
177
     0
178
     0
  0
ENDTAB
  0
ENDSEC
  0
SECTION
  2
BLOCKS
  0
BLOCK
  8
0
  2
$MODEL_SPACE
 70
     0
 10
0.0
 20
0.0
 30
0.0
  3
$MODEL_SPACE
  1

  0
ENDBLK
  5
72
  8
0
  0
BLOCK
 67
     1
  8
0
  2
$PAPER_SPACE
 70
     0
 10
0.0
 20
0.0
 30
0.0
  3
$PAPER_SPACE
  1

  0
ENDBLK
  5
76
 67
     1
  8
0
  0
BLOCK
  8
0
  2
_OBLIQUE
 70
     0
 10
0.0
 20
0.0
 30
0.0
  3
_OBLIQUE
  1

  0
LINE
  5
9D
  8
0
  6
BYBLOCK
 62
     0
 10
-0.5
 20
-0.5
 30
0.0
 11
0.5
 21
0.5
 31
0.0
  0
ENDBLK
  5
9F
  8
0
  0
BLOCK
  8
0
  2
DIMBLOCK1-REF__LEVEL
 70
     0
 10
0.0
 20
0.0
 30
0.0
  3
DIMBLOCK1-REF__LEVEL
  1

  0
LINE
  5
13E
  8
0
 62
     0
 10
-2.000000000000123
 20
-35.000000000000007
 30
0.0
 11
-21.408095071667251
 21
-35.0
 31
0.0
  0
LINE
  5
13F
  8
0
 62
     0
 10
-18.822308634040329
 20
-0.0000000000000006
 30
0.0
 11
-17.40809507166724
 21
-0.000000000000001
 31
0.0
  0
LINE
  5
140
  8
0
 62
     0
 10
-19.40809507166724
 20
-35.0
 30
0.0
 11
-19.40809507166724
 21
-0.0000000000000004
 31
0.0
  0
INSERT
  5
141
  8
0
 62
     0
  2
_OBLIQUE
 10
-19.40809507166724
 20
-35.0
 30
0.0
 41
2.0
 42
2.0
 43
2.0
 50
270.0
  0
INSERT
  5
142
  8
0
 62
     0
  2
_OBLIQUE
 10
-19.40809507166724
 20
-0.0000000000000004
 30
0.0
 41
2.0
 42
2.0
 43
2.0
 50
90.0
  0
INSERT
  5
143
  8
0
  2
*U9
 10
0.0
 20
0.0
 30
0.0
  0
POINT
  5
144
  8
DEFPOINTS
 62
     0
 10
-0.0000000000001227
 20
-35.000000000000007
 30
0.0
  0
POINT
  5
145
  8
DEFPOINTS
 62
     0
 10
-20.822308634040329
 20
0.0
 30
0.0
  0
POINT
  5
146
  8
DEFPOINTS
 62
     0
 10
-19.40809507166724
 20
-0.0000000000000004
 30
0.0
  0
ENDBLK
  5
9A
  8
0
  0
BLOCK
  8
0
  2
DIMBLOCK2-REF__LEVEL
 70
     0
 10
0.0
 20
0.0
 30
0.0
  3
DIMBLOCK2-REF__LEVEL
  1

  0
LINE
  5
134
  8
0
 62
     0
 10
116.0963589113187
 20
0.0
 30
0.0
 11
112.0963589113187
 21
0.0
 31
0.0
  0
LINE
  5
135
  8
0
 62
     0
 10
114.3325943523545
 20
20.159921158716831
 30
0.0
 11
110.3933633403057
 21
19.465328448049078
 31
0.0
  0
ARC
  5
136
  8
0
 62
     0
 10
0.0
 20
0.0
 30
0.0
 40
114.0963589113187
 50
0.0
 51
10.00000000000019
  0
INSERT
  5
137
  8
0
 62
     0
  2
_OBLIQUE
 10
114.0963589113187
 20
-0.0000000000000107
 30
0.0
 41
2.0
 42
2.0
 43
2.0
 50
270.0
  0
INSERT
  5
138
  8
0
 62
     0
  2
_OBLIQUE
 10
112.36297884633009
 20
19.81262480338291
 30
0.0
 41
2.0
 42
2.0
 43
2.0
 50
100.0000000000001
  0
INSERT
  5
139
  8
0
  2
*U8
 10
0.0
 20
0.0
 30
0.0
  0
POINT
  5
13A
  8
DEFPOINTS
 62
     0
 10
0.0
 20
0.0
 30
0.0
  0
POINT
  5
13B
  8
DEFPOINTS
 62
     0
 10
118.0963589113187
 20
0.0
 30
0.0
  0
POINT
  5
13C
  8
DEFPOINTS
 62
     0
 10
116.302209858379
 20
20.507217514050701
 30
0.0
  0
POINT
  5
13D
  8
DEFPOINTS
 62
     0
 10
113.9033259302162
 20
6.6341132682069857
 30
0.0
  0
ENDBLK
  5
BD
  8
0
  0
BLOCK
  8
0
  2
DIMBLOCK3-REF__LEVEL
 70
     0
 10
0.0
 20
0.0
 30
0.0
  3
DIMBLOCK3-REF__LEVEL
  1

  0
LINE
  5
12B
  8
0
 62
     0
 10
-0.3472963553339251
 20
1.969615506025012
 30
0.0
 11
-3.2378321585817482
 21
18.362658655938471
 31
0.0
  0
LINE
  5
12C
  8
0
 62
     0
 10
68.588855700338826
 20
14.12491905966143
 30
0.0
 11
65.698319897090997
 21
30.5179622095749
 31
0.0
  0
LINE
  5
12D
  8
0
 62
     0
 10
-2.8905358032478872
 20
16.39304314991405
 30
0.0
 11
66.045616252424864
 21
28.548346703550472
 31
0.0
  0
INSERT
  5
12E
  8
0
 62
     0
  2
_OBLIQUE
 10
-2.8905358032478872
 20
16.39304314991405
 30
0.0
 41
2.0
 42
2.0
 43
2.0
 50
190.0
  0
INSERT
  5
12F
  8
0
 62
     0
  2
_OBLIQUE
 10
66.045616252424864
 20
28.548346703550472
 30
0.0
 41
2.0
 42
2.0
 43
2.0
 50
10.0
  0
INSERT
  5
130
  8
0
  2
*U7
 10
0.0
 20
0.0
 30
0.0
  0
POINT
  5
131
  8
DEFPOINTS
 62
     0
 10
-0.0000000000000645
 20
0.0000000000005964
 30
0.0
  0
POINT
  5
132
  8
DEFPOINTS
 62
     0
 10
68.936152055672693
 20
12.155303553637021
 30
0.0
  0
POINT
  5
133
  8
DEFPOINTS
 62
     0
 10
66.045616252424864
 20
28.548346703550472
 30
0.0
  0
ENDBLK
  5
D9
  8
0
  0
BLOCK
  8
0
  2
DIMBLOCK4-REF__LEVEL
 70
     0
 10
0.0
 20
0.0
 30
0.0
  3
DIMBLOCK4-REF__LEVEL
  1

  0
LINE
  5
120
  8
0
 62
     0
 10
-1.7320508075689971
 20
-36.0
 30
0.0
 11
-17.766619617116231
 21
-45.257562618531679
 31
0.0
  0
LINE
  5
121
  8
0
 62
     0
 10
0.7679491924310078
 20
-40.330127018922177
 30
0.0
 11
-15.26661961711622
 21
-49.58768963745387
 31
0.0
  0
LINE
  5
122
  8
0
 62
     0
 10
-16.034568809547341
 20
-44.257562618531693
 30
0.0
 11
-17.034568809547341
 21
-42.525511810962811
 31
0.0
  0
LINE
  5
123
  8
0
 62
     0
 10
-13.53456880954734
 20
-48.58768963745387
 30
0.0
 11
-12.53456880954734
 21
-50.319740445022738
 31
0.0
  0
LINE
  5
124
  8
0
 62
     0
 10
-16.034568809547341
 20
-44.257562618531693
 30
0.0
 11
-13.53456880954734
 21
-48.58768963745387
 31
0.0
  0
INSERT
  5
125
  8
0
 62
     0
  2
_OBLIQUE
 10
-16.034568809547341
 20
-44.257562618531693
 30
0.0
 41
2.0
 42
2.0
 43
2.0
 50
300.0
  0
INSERT
  5
126
  8
0
 62
     0
  2
_OBLIQUE
 10
-13.53456880954734
 20
-48.58768963745387
 30
0.0
 41
2.0
 42
2.0
 43
2.0
 50
120.0
  0
INSERT
  5
127
  8
0
  2
*U6
 10
0.0
 20
0.0
 30
0.0
  0
POINT
  5
128
  8
DEFPOINTS
 62
     0
 10
-0.0000000000001208
 20
-35.0
 30
0.0
  0
POINT
  5
129
  8
DEFPOINTS
 62
     0
 10
2.4999999999998841
 20
-39.330127018922191
 30
0.0
  0
POINT
  5
12A
  8
DEFPOINTS
 62
     0
 10
-13.53456880954734
 20
-48.58768963745387
 30
0.0
  0
ENDBLK
  5
F3
  8
0
  0
BLOCK
  8
0
  2
*U6
 70
     1
 10
0.0
 20
0.0
 30
0.0
  3
*U6
  1

  0
TEXT
  5
1F4
  8
0
 62
     0
 10
-15.00281407424316
 20
-41.931903782000923
 30
0.0
 40
2.9505988023952101
  1
5.00
 50
300.0
  7
ARIAL
  0
ENDBLK
  5
1F6
  8
0
  0
BLOCK
  8
0
  2
*U7
 70
     1
 10
0.0
 20
0.0
 30
0.0
  3
*U7
  1

  0
TEXT
  5
1F8
  8
0
 62
     0
 10
26.142293260618221
 20
23.600392063709151
 30
0.0
 40
2.9505988023952101
  1
70.00
 50
10.0
  7
ARIAL
  0
ENDBLK
  5
1FA
  8
0
  0
BLOCK
  8
0
  2
*U8
 70
     1
 10
0.0
 20
0.0
 30
0.0
  3
*U8
  1

  0
TEXT
  5
1FC
  8
0
 62
     0
 10
115.1817473986643
 20
16.169537667994849
 30
0.0
 40
2.9505988023952101
  1
10.00°
 50
275.00000000000011
  7
ARIAL
  0
ENDBLK
  5
1FE
  8
0
  0
BLOCK
  8
0
  2
*U9
 70
     1
 10
0.0
 20
0.0
 30
0.0
  3
*U9
  1

  0
TEXT
  5
200
  8
0
 62
     0
 10
-21.466462987949271
 20
-22.645433723276518
 30
0.0
 40
2.9505988023952101
  1
35.00
 50
90.0
  7
ARIAL
  0
ENDBLK
  5
202
  8
0
  0
ENDSEC
  0
SECTION
  2
ENTITIES
  0
LINE
  5
88
  8
0
 10
-0.0000000000000643
 20
0.0000000000006007
 30
0.0
 11
-0.0000000000001206
 21
-35.000000000000007
 31
0.0
1001
REVIT
1002
{
1070
     1
1000
320750
1002
}
1002
{
1070
     2
1000
-2002000
1002
}
1002
{
1070
     3
1000
206783
1002
}
  0
LINE
  5
89
  8
0
 10
-0.0000000000000645
 20
0.0000000000005966
 30
0.0
 11
68.936152055672693
 21
12.155303553637021
 31
0.0
1001
REVIT
1002
{
1070
     1
1000
320753
1002
}
1002
{
1070
     2
1000
-2002000
1002
}
1002
{
1070
     3
1000
206783
1002
}
  0
LINE
  5
8A
  8
0
 10
-0.0000000000001191
 20
-35.0
 30
0.0
 11
2.4999999999998819
 21
-39.330127018922191
 31
0.0
1001
REVIT
1002
{
1070
     1
1000
320756
1002
}
1002
{
1070
     2
1000
-2002000
1002
}
1002
{
1070
     3
1000
206783
1002
}
  0
ENDSEC
  0
EOF
