  0
SECTION
  2
HEADER
  9
$ACADVER
  1
AC1009
  9
$INSBASE
 10
0.0
 20
0.0
 30
0.0
  9
$EXTMIN
 10
-103.7243739976485
 20
-95.253064713566104
 30
0.0
  9
$EXTMAX
 10
99.792274186801734
 20
99.529601656585385
 30
0.0
  9
$LIMMIN
 10
0.0
 20
0.0
  9
$LIMMAX
 10
12.0
 20
9.0
  9
$ORTHOMODE
 70
     0
  9
$REGENMODE
 70
     1
  9
$FILLMODE
 70
     1
  9
$QTEXTMODE
 70
     0
  9
$MIRRTEXT
 70
     0
  9
$DRAGMODE
 70
     2
  9
$LTSCALE
 40
1.0
  9
$OSMODE
 70
   127
  9
$ATTMODE
 70
     1
  9
$TEXTSIZE
 40
0.2
  9
$TRACEWID
 40
0.05
  9
$TEXTSTYLE
  7
STANDARD
  9
$CLAYER
  8
0
  9
$CELTYPE
  6
BYLAYER
  9
$CECOLOR
 62
   256
  9
$DIMSCALE
 40
1.0
  9
$DIMASZ
 40
0.18
  9
$DIMEXO
 40
0.0625
  9
$DIMDLI
 40
0.38
  9
$DIMRND
 40
0.0
  9
$DIMDLE
 40
0.0
  9
$DIMEXE
 40
0.18
  9
$DIMTP
 40
0.0
  9
$DIMTM
 40
0.0
  9
$DIMTXT
 40
0.18
  9
$DIMCEN
 40
0.09
  9
$DIMTSZ
 40
0.0
  9
$DIMTOL
 70
     0
  9
$DIMLIM
 70
     0
  9
$DIMTIH
 70
     1
  9
$DIMTOH
 70
     1
  9
$DIMSE1
 70
     0
  9
$DIMSE2
 70
     0
  9
$DIMTAD
 70
     0
  9
$DIMZIN
 70
     0
  9
$DIMBLK
  1

  9
$DIMASO
 70
     1
  9
$DIMSHO
 70
     1
  9
$DIMPOST
  1

  9
$DIMAPOST
  1

  9
$DIMALT
 70
     0
  9
$DIMALTD
 70
     2
  9
$DIMALTF
 40
25.399999999999999
  9
$DIMLFAC
 40
1.0
  9
$DIMTOFL
 70
     0
  9
$DIMTVP
 40
0.0
  9
$DIMTIX
 70
     0
  9
$DIMSOXD
 70
     0
  9
$DIMSAH
 70
     0
  9
$DIMBLK1
  1

  9
$DIMBLK2
  1

  9
$DIMSTYLE
  2
STANDARD
  9
$DIMCLRD
 70
     0
  9
$DIMCLRE
 70
     0
  9
$DIMCLRT
 70
     0
  9
$DIMTFAC
 40
1.0
  9
$DIMGAP
 40
0.09
  9
$LUNITS
 70
     2
  9
$LUPREC
 70
     4
  9
$SKETCHINC
 40
0.1
  9
$FILLETRAD
 40
0.0
  9
$AUNITS
 70
     0
  9
$AUPREC
 70
     0
  9
$MENU
  1
.
  9
$ELEVATION
 40
0.0
  9
$PELEVATION
 40
0.0
  9
$THICKNESS
 40
0.0
  9
$LIMCHECK
 70
     0
  9
$BLIPMODE
 70
     0
  9
$CHAMFERA
 40
0.0
  9
$CHAMFERB
 40
0.0
  9
$SKPOLY
 70
     0
  9
$TDCREATE
 40
2457375.5626433911
  9
$TDUPDATE
 40
2457378.9849787271
  9
$TDINDWG
 40
0.0001445023
  9
$TDUSRTIMER
 40
0.0001445023
  9
$USRTIMER
 70
     1
  9
$ANGBASE
 50
0.0
  9
$ANGDIR
 70
     0
  9
$PDMODE
 70
     0
  9
$PDSIZE
 40
0.0
  9
$PLINEWID
 40
0.0
  9
$COORDS
 70
     2
  9
$SPLFRAME
 70
     0
  9
$SPLINETYPE
 70
     6
  9
$SPLINESEGS
 70
     8
  9
$ATTDIA
 70
     0
  9
$ATTREQ
 70
     0
  9
$HANDLING
 70
     1
  9
$HANDSEED
  5
354
  9
$SURFTAB1
 70
     6
  9
$SURFTAB2
 70
     6
  9
$SURFTYPE
 70
     6
  9
$SURFU
 70
     6
  9
$SURFV
 70
     6
  9
$UCSNAME
  2

  9
$UCSORG
 10
0.0
 20
0.0
 30
0.0
  9
$UCSXDIR
 10
1.0
 20
0.0
 30
0.0
  9
$UCSYDIR
 10
0.0
 20
1.0
 30
0.0
  9
$PUCSNAME
  2

  9
$PUCSORG
 10
0.0
 20
0.0
 30
0.0
  9
$PUCSXDIR
 10
1.0
 20
0.0
 30
0.0
  9
$PUCSYDIR
 10
0.0
 20
1.0
 30
0.0
  9
$USERI1
 70
     0
  9
$USERI2
 70
     0
  9
$USERI3
 70
     0
  9
$USERI4
 70
     0
  9
$USERI5
 70
     0
  9
$USERR1
 40
0.0
  9
$USERR2
 40
0.0
  9
$USERR3
 40
0.0
  9
$USERR4
 40
0.0
  9
$USERR5
 40
0.0
  9
$WORLDVIEW
 70
     1
  9
$SHADEDGE
 70
     3
  9
$SHADEDIF
 70
    70
  9
$TILEMODE
 70
     1
  9
$MAXACTVP
 70
    64
  9
$PLIMCHECK
 70
     0
  9
$PEXTMIN
 10
0.0
 20
0.0
 30
0.0
  9
$PEXTMAX
 10
0.0
 20
0.0
 30
0.0
  9
$PLIMMIN
 10
0.0
 20
0.0
  9
$PLIMMAX
 10
12.0
 20
9.0
  9
$UNITMODE
 70
     0
  9
$VISRETAIN
 70
     1
  9
$PLINEGEN
 70
     0
  9
$PSLTSCALE
 70
     1
  0
ENDSEC
  0
SECTION
  2
TABLES
  0
TABLE
  2
VPORT
 70
     1
  0
VPORT
  2
*ACTIVE
 70
     0
 10
0.0
 20
0.0
 11
1.0
 21
1.0
 12
111.4407361576946
 22
2.2478072384505192
 13
0.0
 23
0.0
 14
1.0
 24
1.0
 15
0.0
 25
0.0
 16
0.0
 26
0.0
 36
1.0
 17
0.0
 27
0.0
 37
0.0
 40
160.17281801063339
 41
1.7244755244755241
 42
50.0
 43
0.0
 44
0.0
 50
0.0
 51
0.0
 71
     0
 72
  1000
 73
     1
 74
     3
 75
     0
 76
     0
 77
     0
 78
     0
  0
ENDTAB
  0
TABLE
  2
LTYPE
 70
     1
  0
LTYPE
  2
CONTINUOUS
 70
     0
  3
Solid line
 72
    65
 73
     0
 40
0.0
  0
ENDTAB
  0
TABLE
  2
LAYER
 70
     6
  0
LAYER
  2
0
 70
     0
 62
     7
  6
CONTINUOUS
  0
LAYER
  2
DEFPOINTS
 70
     0
 62
     7
  6
CONTINUOUS
  0
ENDTAB
  0
TABLE
  2
STYLE
 70
     3
  0
STYLE
  2
STANDARD
 70
     0
 40
0.0
 41
1.0
 50
0.0
 71
     0
 42
0.2
  3
txt
  4

  0
STYLE
  2
ARIAL
 70
     0
 40
2.9505988023952101
 41
1.0
 50
0.0
 71
     0
 42
0.2
  3
txt
  4

  0
ENDTAB
  0
TABLE
  2
VIEW
 70
     0
  0
ENDTAB
  0
TABLE
  2
UCS
 70
     0
  0
ENDTAB
  0
TABLE
  2
APPID
 70
     5
  0
APPID
  2
ACAD
 70
     0
  0
APPID
  2
ACADANNOTATIVE
 70
     0
  0
APPID
  2
REVIT
 70
     0
  0
APPID
  2
ACAD_NAV_VCDISPLAY
 70
     0
  0
APPID
  2
ACAD_MLEADERVER
 70
     0
  0
ENDTAB
  0
TABLE
  2
DIMSTYLE
 70
     3
  0
DIMSTYLE
  2
STANDARD
 70
     0
  3

  4

  5

  6

  7

 40
1.0
 41
0.18
 42
0.0625
 43
0.38
 44
0.18
 45
0.0
 46
0.0
 47
0.0
 48
0.0
140
0.18
141
0.09
142
0.0
143
25.399999999999999
144
1.0
145
0.0
146
1.0
147
0.09
 71
     0
 72
     0
 73
     1
 74
     1
 75
     0
 76
     0
 77
     0
 78
     0
170
     0
171
     2
172
     0
173
     0
174
     0
175
     0
176
     0
177
     0
178
     0
  0
DIMSTYLE
  2
LINEAR
 70
     0
  3
<>
  4

  5

  6
OBLIQUE
  7
OBLIQUE
 40
304.80000000000001
 41
0.0065616797900262
 42
0.0065616797900262
 43
0.38
 44
0.0065616797900262
 45
0.01
 46
0.0
 47
0.0
 48
0.0
140
3.0
141
0.09
142
0.0
143
25.399999999999999
144
1.0
145
1.0
146
1.0
147
0.0065616797900262
 71
     0
 72
     0
 73
     0
 74
     0
 75
     0
 76
     0
 77
     1
 78
     0
170
     0
171
     2
172
     1
173
     1
174
     1
175
     0
176
     0
177
     0
178
     0
  0
ENDTAB
  0
ENDSEC
  0
SECTION
  2
BLOCKS
  0
BLOCK
  8
0
  2
$MODEL_SPACE
 70
     0
 10
0.0
 20
0.0
 30
0.0
  3
$MODEL_SPACE
  1

  0
ENDBLK
  5
72
  8
0
  0
BLOCK
 67
     1
  8
0
  2
$PAPER_SPACE
 70
     0
 10
0.0
 20
0.0
 30
0.0
  3
$PAPER_SPACE
  1

  0
ENDBLK
  5
76
 67
     1
  8
0
  0
BLOCK
  8
0
  2
_OBLIQUE
 70
     0
 10
0.0
 20
0.0
 30
0.0
  3
_OBLIQUE
  1

  0
LINE
  5
B3
  8
0
  6
BYBLOCK
 62
     0
 10
-0.5
 20
-0.5
 30
0.0
 11
0.5
 21
0.5
 31
0.0
  0
ENDBLK
  5
B5
  8
0
  0
BLOCK
  8
0
  2
DIMBLOCK1-REF__LEVEL
 70
     0
 10
0.0
 20
0.0
 30
0.0
  3
DIMBLOCK1-REF__LEVEL
  1

  0
LINE
  5
26D
  8
0
 62
     0
 10
80.000000000000114
 20
82.451718162182374
 30
0.0
 11
80.000000000000114
 21
81.037504599809253
 31
0.0
  0
LINE
  5
26E
  8
0
 62
     0
 10
90.000000000000114
 20
82.451718162182374
 30
0.0
 11
90.000000000000114
 21
81.037504599809253
 31
0.0
  0
LINE
  5
26F
  8
0
 62
     0
 10
80.000000000000114
 20
83.037504599809253
 30
0.0
 11
78.000000000000114
 21
83.037504599809253
 31
0.0
  0
LINE
  5
270
  8
0
 62
     0
 10
90.000000000000114
 20
83.037504599809253
 30
0.0
 11
92.000000000000114
 21
83.037504599809253
 31
0.0
  0
LINE
  5
271
  8
0
 62
     0
 10
80.000000000000114
 20
83.037504599809253
 30
0.0
 11
90.000000000000114
 21
83.037504599809253
 31
0.0
  0
INSERT
  5
272
  8
0
 62
     0
  2
_OBLIQUE
 10
80.000000000000114
 20
83.037504599809253
 30
0.0
 41
2.0
 42
2.0
 43
2.0
  0
INSERT
  5
273
  8
0
 62
     0
  2
_OBLIQUE
 10
90.000000000000114
 20
83.037504599809253
 30
0.0
 41
2.0
 42
2.0
 43
2.0
 50
180.0
  0
INSERT
  5
274
  8
0
  2
*U25
 10
0.0
 20
0.0
 30
0.0
  0
POINT
  5
275
  8
DEFPOINTS
 62
     0
 10
80.000000000000114
 20
84.451718162182374
 30
0.0
  0
POINT
  5
276
  8
DEFPOINTS
 62
     0
 10
90.000000000000114
 20
84.451718162182374
 30
0.0
  0
POINT
  5
277
  8
DEFPOINTS
 62
     0
 10
90.000000000000114
 20
83.037504599809253
 30
0.0
  0
ENDBLK
  5
B0
  8
0
  0
BLOCK
  8
0
  2
DIMBLOCK2-REF__LEVEL
 70
     0
 10
0.0
 20
0.0
 30
0.0
  3
DIMBLOCK2-REF__LEVEL
  1

  0
LINE
  5
262
  8
0
 62
     0
 10
-89.999999999999915
 20
82.451718162182516
 30
0.0
 11
-89.999999999999915
 21
81.037504599809424
 31
0.0
  0
LINE
  5
263
  8
0
 62
     0
 10
-79.999999999999915
 20
82.451718162182516
 30
0.0
 11
-79.999999999999915
 21
81.037504599809424
 31
0.0
  0
LINE
  5
264
  8
0
 62
     0
 10
-89.999999999999915
 20
83.037504599809424
 30
0.0
 11
-91.999999999999915
 21
83.037504599809424
 31
0.0
  0
LINE
  5
265
  8
0
 62
     0
 10
-79.999999999999915
 20
83.037504599809424
 30
0.0
 11
-77.999999999999915
 21
83.037504599809424
 31
0.0
  0
LINE
  5
266
  8
0
 62
     0
 10
-89.999999999999915
 20
83.037504599809424
 30
0.0
 11
-79.999999999999915
 21
83.037504599809424
 31
0.0
  0
INSERT
  5
267
  8
0
 62
     0
  2
_OBLIQUE
 10
-89.999999999999915
 20
83.037504599809424
 30
0.0
 41
2.0
 42
2.0
 43
2.0
  0
INSERT
  5
268
  8
0
 62
     0
  2
_OBLIQUE
 10
-79.999999999999915
 20
83.037504599809424
 30
0.0
 41
2.0
 42
2.0
 43
2.0
 50
180.0
  0
INSERT
  5
269
  8
0
  2
*U24
 10
0.0
 20
0.0
 30
0.0
  0
POINT
  5
26A
  8
DEFPOINTS
 62
     0
 10
-89.999999999999915
 20
84.451718162182516
 30
0.0
  0
POINT
  5
26B
  8
DEFPOINTS
 62
     0
 10
-79.999999999999915
 20
84.451718162182516
 30
0.0
  0
POINT
  5
26C
  8
DEFPOINTS
 62
     0
 10
-79.999999999999915
 20
83.037504599809424
 30
0.0
  0
ENDBLK
  5
D3
  8
0
  0
BLOCK
  8
0
  2
DIMBLOCK3-REF__LEVEL
 70
     0
 10
0.0
 20
0.0
 30
0.0
  3
DIMBLOCK3-REF__LEVEL
  1

  0
LINE
  5
257
  8
0
 62
     0
 10
-97.701716089838897
 20
3.000000000000985
 30
0.0
 11
-99.115929652212003
 21
3.000000000000985
 31
0.0
  0
LINE
  5
258
  8
0
 62
     0
 10
-97.701716089838925
 20
0.0000000000004381
 30
0.0
 11
-99.115929652212003
 21
0.0000000000004385
 31
0.0
  0
LINE
  5
259
  8
0
 62
     0
 10
-97.115929652212003
 20
3.000000000000985
 30
0.0
 11
-97.115929652212003
 21
5.000000000000985
 31
0.0
  0
LINE
  5
25A
  8
0
 62
     0
 10
-97.115929652212003
 20
0.0000000000004379
 30
0.0
 11
-97.115929652212003
 21
-1.9999999999995619
 31
0.0
  0
LINE
  5
25B
  8
0
 62
     0
 10
-97.115929652212003
 20
3.000000000000985
 30
0.0
 11
-97.115929652212003
 21
0.0000000000004379
 31
0.0
  0
INSERT
  5
25C
  8
0
 62
     0
  2
_OBLIQUE
 10
-97.115929652212003
 20
3.000000000000985
 30
0.0
 41
2.0
 42
2.0
 43
2.0
 50
270.0
  0
INSERT
  5
25D
  8
0
 62
     0
  2
_OBLIQUE
 10
-97.115929652212003
 20
0.0000000000004379
 30
0.0
 41
2.0
 42
2.0
 43
2.0
 50
90.0
  0
INSERT
  5
25E
  8
0
  2
*U23
 10
0.0
 20
0.0
 30
0.0
  0
POINT
  5
25F
  8
DEFPOINTS
 62
     0
 10
-95.701716089838897
 20
3.0000000000009841
 30
0.0
  0
POINT
  5
260
  8
DEFPOINTS
 62
     0
 10
-95.701716089838911
 20
0.0000000000004375
 30
0.0
  0
POINT
  5
261
  8
DEFPOINTS
 62
     0
 10
-97.115929652212003
 20
0.0000000000004379
 30
0.0
  0
ENDBLK
  5
EF
  8
0
  0
BLOCK
  8
0
  2
DIMBLOCK4-REF__LEVEL
 70
     0
 10
0.0
 20
0.0
 30
0.0
  3
DIMBLOCK4-REF__LEVEL
  1

  0
LINE
  5
24E
  8
0
 62
     0
 10
-90.000000000000185
 20
-93.838851151192841
 30
0.0
 11
-90.000000000000185
 21
-95.253064713566104
 31
0.0
  0
LINE
  5
24F
  8
0
 62
     0
 10
89.999999999999815
 20
-93.83885115119314
 30
0.0
 11
89.999999999999815
 21
-95.253064713566104
 31
0.0
  0
LINE
  5
250
  8
0
 62
     0
 10
-90.000000000000185
 20
-93.253064713566104
 30
0.0
 11
89.999999999999815
 21
-93.253064713566104
 31
0.0
  0
INSERT
  5
251
  8
0
 62
     0
  2
_OBLIQUE
 10
-90.000000000000185
 20
-93.253064713566104
 30
0.0
 41
2.0
 42
2.0
 43
2.0
 50
180.0
  0
INSERT
  5
252
  8
0
 62
     0
  2
_OBLIQUE
 10
89.999999999999815
 20
-93.253064713566104
 30
0.0
 41
2.0
 42
2.0
 43
2.0
  0
INSERT
  5
253
  8
0
  2
*U22
 10
0.0
 20
0.0
 30
0.0
  0
POINT
  5
254
  8
DEFPOINTS
 62
     0
 10
-90.000000000000185
 20
-91.838851151192841
 30
0.0
  0
POINT
  5
255
  8
DEFPOINTS
 62
     0
 10
89.999999999999815
 20
-91.838851151193154
 30
0.0
  0
POINT
  5
256
  8
DEFPOINTS
 62
     0
 10
89.999999999999815
 20
-93.253064713566104
 30
0.0
  0
ENDBLK
  5
10B
  8
0
  0
BLOCK
  8
0
  2
DIMBLOCK5-REF__LEVEL
 70
     0
 10
0.0
 20
0.0
 30
0.0
  3
DIMBLOCK5-REF__LEVEL
  1

  0
LINE
  5
245
  8
0
 62
     0
 10
-89.999999999999915
 20
92.335370873522095
 30
0.0
 11
-89.999999999999915
 21
90.921157311148846
 31
0.0
  0
LINE
  5
246
  8
0
 62
     0
 10
0.0000000000001183
 20
92.335370873521967
 30
0.0
 11
0.0000000000001182
 21
90.921157311148846
 31
0.0
  0
LINE
  5
247
  8
0
 62
     0
 10
-89.999999999999915
 20
92.921157311148846
 30
0.0
 11
0.0000000000001184
 21
92.921157311148846
 31
0.0
  0
INSERT
  5
248
  8
0
 62
     0
  2
_OBLIQUE
 10
-89.999999999999915
 20
92.921157311148846
 30
0.0
 41
2.0
 42
2.0
 43
2.0
 50
180.0
  0
INSERT
  5
249
  8
0
 62
     0
  2
_OBLIQUE
 10
0.0000000000001184
 20
92.921157311148846
 30
0.0
 41
2.0
 42
2.0
 43
2.0
  0
INSERT
  5
24A
  8
0
  2
*U21
 10
0.0
 20
0.0
 30
0.0
  0
POINT
  5
24B
  8
DEFPOINTS
 62
     0
 10
-89.999999999999915
 20
94.335370873522109
 30
0.0
  0
POINT
  5
24C
  8
DEFPOINTS
 62
     0
 10
0.0000000000001184
 20
94.335370873521967
 30
0.0
  0
POINT
  5
24D
  8
DEFPOINTS
 62
     0
 10
0.0000000000001184
 20
92.921157311148846
 30
0.0
  0
ENDBLK
  5
125
  8
0
  0
BLOCK
  8
0
  2
DIMBLOCK6-REF__LEVEL
 70
     0
 10
0.0
 20
0.0
 30
0.0
  3
DIMBLOCK6-REF__LEVEL
  1

  0
LINE
  5
23C
  8
0
 62
     0
 10
0.0000000000001183
 20
92.335370873521967
 30
0.0
 11
0.0000000000001182
 21
90.921157311148846
 31
0.0
  0
LINE
  5
23D
  8
0
 62
     0
 10
90.000000000000142
 20
92.335370873521796
 30
0.0
 11
90.000000000000142
 21
90.921157311148846
 31
0.0
  0
LINE
  5
23E
  8
0
 62
     0
 10
0.0000000000001184
 20
92.921157311148846
 30
0.0
 11
90.000000000000142
 21
92.921157311148846
 31
0.0
  0
INSERT
  5
23F
  8
0
 62
     0
  2
_OBLIQUE
 10
0.0000000000001184
 20
92.921157311148846
 30
0.0
 41
2.0
 42
2.0
 43
2.0
 50
180.0
  0
INSERT
  5
240
  8
0
 62
     0
  2
_OBLIQUE
 10
90.000000000000142
 20
92.921157311148846
 30
0.0
 41
2.0
 42
2.0
 43
2.0
  0
INSERT
  5
241
  8
0
  2
*U20
 10
0.0
 20
0.0
 30
0.0
  0
POINT
  5
242
  8
DEFPOINTS
 62
     0
 10
0.0000000000001184
 20
94.335370873521967
 30
0.0
  0
POINT
  5
243
  8
DEFPOINTS
 62
     0
 10
90.000000000000142
 20
94.335370873521796
 30
0.0
  0
POINT
  5
244
  8
DEFPOINTS
 62
     0
 10
90.000000000000142
 20
92.921157311148846
 30
0.0
  0
ENDBLK
  5
13F
  8
0
  0
BLOCK
  8
0
  2
DIMBLOCK7-REF__LEVEL
 70
     0
 10
0.0
 20
0.0
 30
0.0
  3
DIMBLOCK7-REF__LEVEL
  1

  0
LINE
  5
233
  8
0
 62
     0
 10
-19.999999999999918
 20
82.079877335838589
 30
0.0
 11
-19.999999999999918
 21
80.665663773465425
 31
0.0
  0
LINE
  5
234
  8
0
 62
     0
 10
0.0000000000001014
 20
82.07987733583856
 30
0.0
 11
0.0000000000001013
 21
80.665663773465425
 31
0.0
  0
LINE
  5
235
  8
0
 62
     0
 10
-19.999999999999918
 20
82.665663773465425
 30
0.0
 11
0.0000000000001014
 21
82.665663773465425
 31
0.0
  0
INSERT
  5
236
  8
0
 62
     0
  2
_OBLIQUE
 10
-19.999999999999918
 20
82.665663773465425
 30
0.0
 41
2.0
 42
2.0
 43
2.0
 50
180.0
  0
INSERT
  5
237
  8
0
 62
     0
  2
_OBLIQUE
 10
0.0000000000001014
 20
82.665663773465425
 30
0.0
 41
2.0
 42
2.0
 43
2.0
  0
INSERT
  5
238
  8
0
  2
*U19
 10
0.0
 20
0.0
 30
0.0
  0
POINT
  5
239
  8
DEFPOINTS
 62
     0
 10
-19.999999999999918
 20
84.079877335838574
 30
0.0
  0
POINT
  5
23A
  8
DEFPOINTS
 62
     0
 10
0.0000000000001015
 20
84.079877335838574
 30
0.0
  0
POINT
  5
23B
  8
DEFPOINTS
 62
     0
 10
0.0000000000001014
 20
82.665663773465425
 30
0.0
  0
ENDBLK
  5
159
  8
0
  0
BLOCK
  8
0
  2
DIMBLOCK8-REF__LEVEL
 70
     0
 10
0.0
 20
0.0
 30
0.0
  3
DIMBLOCK8-REF__LEVEL
  1

  0
LINE
  5
22A
  8
0
 62
     0
 10
0.0000000000001014
 20
82.07987733583856
 30
0.0
 11
0.0000000000001013
 21
80.665663773465425
 31
0.0
  0
LINE
  5
22B
  8
0
 62
     0
 10
20.000000000000121
 20
82.079877335838518
 30
0.0
 11
20.000000000000121
 21
80.665663773465425
 31
0.0
  0
LINE
  5
22C
  8
0
 62
     0
 10
0.0000000000001014
 20
82.665663773465425
 30
0.0
 11
20.000000000000121
 21
82.665663773465425
 31
0.0
  0
INSERT
  5
22D
  8
0
 62
     0
  2
_OBLIQUE
 10
0.0000000000001014
 20
82.665663773465425
 30
0.0
 41
2.0
 42
2.0
 43
2.0
 50
180.0
  0
INSERT
  5
22E
  8
0
 62
     0
  2
_OBLIQUE
 10
20.000000000000121
 20
82.665663773465425
 30
0.0
 41
2.0
 42
2.0
 43
2.0
  0
INSERT
  5
22F
  8
0
  2
*U18
 10
0.0
 20
0.0
 30
0.0
  0
POINT
  5
230
  8
DEFPOINTS
 62
     0
 10
0.0000000000001015
 20
84.079877335838574
 30
0.0
  0
POINT
  5
231
  8
DEFPOINTS
 62
     0
 10
20.000000000000121
 20
84.079877335838503
 30
0.0
  0
POINT
  5
232
  8
DEFPOINTS
 62
     0
 10
20.000000000000121
 20
82.665663773465425
 30
0.0
  0
ENDBLK
  5
173
  8
0
  0
BLOCK
  8
0
  2
DIMBLOCK9-REF__LEVEL
 70
     0
 10
0.0
 20
0.0
 30
0.0
  3
DIMBLOCK9-REF__LEVEL
  1

  0
LINE
  5
221
  8
0
 62
     0
 10
-90.000000000000185
 20
-84.191460914952714
 30
0.0
 11
-90.000000000000185
 21
-85.605674477325962
 31
0.0
  0
LINE
  5
222
  8
0
 62
     0
 10
-20.000000000000188
 20
-84.191460914952813
 30
0.0
 11
-20.000000000000188
 21
-85.605674477325962
 31
0.0
  0
LINE
  5
223
  8
0
 62
     0
 10
-90.000000000000185
 20
-83.605674477325977
 30
0.0
 11
-20.000000000000188
 21
-83.605674477325977
 31
0.0
  0
INSERT
  5
224
  8
0
 62
     0
  2
_OBLIQUE
 10
-90.000000000000185
 20
-83.605674477325977
 30
0.0
 41
2.0
 42
2.0
 43
2.0
 50
180.0
  0
INSERT
  5
225
  8
0
 62
     0
  2
_OBLIQUE
 10
-20.000000000000188
 20
-83.605674477325977
 30
0.0
 41
2.0
 42
2.0
 43
2.0
  0
INSERT
  5
226
  8
0
  2
*U17
 10
0.0
 20
0.0
 30
0.0
  0
POINT
  5
227
  8
DEFPOINTS
 62
     0
 10
-90.000000000000185
 20
-82.191460914952714
 30
0.0
  0
POINT
  5
228
  8
DEFPOINTS
 62
     0
 10
-20.000000000000188
 20
-82.191460914952799
 30
0.0
  0
POINT
  5
229
  8
DEFPOINTS
 62
     0
 10
-20.000000000000188
 20
-83.605674477325977
 30
0.0
  0
ENDBLK
  5
18D
  8
0
  0
BLOCK
  8
0
  2
DIMBLOCK10-REF__LEVEL
 70
     0
 10
0.0
 20
0.0
 30
0.0
  3
DIMBLOCK10-REF__LEVEL
  1

  0
LINE
  5
218
  8
0
 62
     0
 10
-20.000000000000188
 20
-84.191460914952813
 30
0.0
 11
-20.000000000000188
 21
-85.605674477325962
 31
0.0
  0
LINE
  5
219
  8
0
 62
     0
 10
19.999999999999851
 20
-84.191460914952884
 30
0.0
 11
19.999999999999851
 21
-85.605674477325962
 31
0.0
  0
LINE
  5
21A
  8
0
 62
     0
 10
-20.000000000000188
 20
-83.605674477325977
 30
0.0
 11
19.999999999999851
 21
-83.605674477325977
 31
0.0
  0
INSERT
  5
21B
  8
0
 62
     0
  2
_OBLIQUE
 10
-20.000000000000188
 20
-83.605674477325977
 30
0.0
 41
2.0
 42
2.0
 43
2.0
 50
180.0
  0
INSERT
  5
21C
  8
0
 62
     0
  2
_OBLIQUE
 10
19.999999999999851
 20
-83.605674477325977
 30
0.0
 41
2.0
 42
2.0
 43
2.0
  0
INSERT
  5
21D
  8
0
  2
*U16
 10
0.0
 20
0.0
 30
0.0
  0
POINT
  5
21E
  8
DEFPOINTS
 62
     0
 10
-20.000000000000188
 20
-82.191460914952799
 30
0.0
  0
POINT
  5
21F
  8
DEFPOINTS
 62
     0
 10
19.999999999999851
 20
-82.191460914952884
 30
0.0
  0
POINT
  5
220
  8
DEFPOINTS
 62
     0
 10
19.999999999999851
 20
-83.605674477325977
 30
0.0
  0
ENDBLK
  5
1A7
  8
0
  0
BLOCK
  8
0
  2
DIMBLOCK11-REF__LEVEL
 70
     0
 10
0.0
 20
0.0
 30
0.0
  3
DIMBLOCK11-REF__LEVEL
  1

  0
LINE
  5
20F
  8
0
 62
     0
 10
19.999999999999851
 20
-84.191460914952884
 30
0.0
 11
19.999999999999851
 21
-85.605674477325962
 31
0.0
  0
LINE
  5
210
  8
0
 62
     0
 10
89.999999999999844
 20
-84.191460914953012
 30
0.0
 11
89.999999999999844
 21
-85.605674477325962
 31
0.0
  0
LINE
  5
211
  8
0
 62
     0
 10
19.999999999999851
 20
-83.605674477325977
 30
0.0
 11
89.999999999999844
 21
-83.605674477325977
 31
0.0
  0
INSERT
  5
212
  8
0
 62
     0
  2
_OBLIQUE
 10
19.999999999999851
 20
-83.605674477325977
 30
0.0
 41
2.0
 42
2.0
 43
2.0
 50
180.0
  0
INSERT
  5
213
  8
0
 62
     0
  2
_OBLIQUE
 10
89.999999999999844
 20
-83.605674477325977
 30
0.0
 41
2.0
 42
2.0
 43
2.0
  0
INSERT
  5
214
  8
0
  2
*U15
 10
0.0
 20
0.0
 30
0.0
  0
POINT
  5
215
  8
DEFPOINTS
 62
     0
 10
19.999999999999851
 20
-82.191460914952884
 30
0.0
  0
POINT
  5
216
  8
DEFPOINTS
 62
     0
 10
89.999999999999844
 20
-82.191460914953026
 30
0.0
  0
POINT
  5
217
  8
DEFPOINTS
 62
     0
 10
89.999999999999844
 20
-83.605674477325977
 30
0.0
  0
ENDBLK
  5
1C1
  8
0
  0
BLOCK
  8
0
  2
DIMBLOCK12-REF__LEVEL
 70
     0
 10
0.0
 20
0.0
 30
0.0
  3
DIMBLOCK12-REF__LEVEL
  1

  0
LINE
  5
206
  8
0
 62
     0
 10
97.206487749174855
 20
39.999999999999808
 30
0.0
 11
95.79227418680162
 21
39.999999999999808
 31
0.0
  0
LINE
  5
207
  8
0
 62
     0
 10
97.206487749174713
 20
-0.0000000000001901
 30
0.0
 11
95.792274186801606
 21
-0.0000000000001897
 31
0.0
  0
LINE
  5
208
  8
0
 62
     0
 10
97.792274186801635
 20
39.999999999999808
 30
0.0
 11
97.792274186801606
 21
-0.0000000000001903
 31
0.0
  0
INSERT
  5
209
  8
0
 62
     0
  2
_OBLIQUE
 10
97.792274186801635
 20
39.999999999999808
 30
0.0
 41
2.0
 42
2.0
 43
2.0
 50
90.0
  0
INSERT
  5
20A
  8
0
 62
     0
  2
_OBLIQUE
 10
97.792274186801606
 20
-0.0000000000001903
 30
0.0
 41
2.0
 42
2.0
 43
2.0
 50
270.0
  0
INSERT
  5
20B
  8
0
  2
*U14
 10
0.0
 20
0.0
 30
0.0
  0
POINT
  5
20C
  8
DEFPOINTS
 62
     0
 10
99.20648774917484
 20
39.999999999999808
 30
0.0
  0
POINT
  5
20D
  8
DEFPOINTS
 62
     0
 10
99.206487749174727
 20
-0.0000000000001907
 30
0.0
  0
POINT
  5
20E
  8
DEFPOINTS
 62
     0
 10
97.792274186801606
 20
-0.0000000000001903
 30
0.0
  0
ENDBLK
  5
1DB
  8
0
  0
BLOCK
  8
0
  2
*U14
 70
     1
 10
0.0
 20
0.0
 30
0.0
  3
*U14
  1

  0
TEXT
  5
325
  8
0
 62
     0
 10
95.735918957287893
 20
14.9149468797737
 30
0.0
 40
2.9505988023952101
  1
40.00
 50
90.0
  7
ARIAL
  0
ENDBLK
  5
327
  8
0
  0
BLOCK
  8
0
  2
*U15
 70
     1
 10
0.0
 20
0.0
 30
0.0
  3
*U15
  1

  0
TEXT
  5
329
  8
0
 62
     0
 10
49.843496499497441
 20
-81.54931924781225
 30
0.0
 40
2.9505988023952101
  1
70.00
  7
ARIAL
  0
ENDBLK
  5
32B
  8
0
  0
BLOCK
  8
0
  2
*U16
 70
     1
 10
0.0
 20
0.0
 30
0.0
  3
*U16
  1

  0
TEXT
  5
32D
  8
0
 62
     0
 10
-5.0850531202262976
 20
-81.54931924781225
 30
0.0
 40
2.9505988023952101
  1
40.00
  7
ARIAL
  0
ENDBLK
  5
32F
  8
0
  0
BLOCK
  8
0
  2
*U17
 70
     1
 10
0.0
 20
0.0
 30
0.0
  3
*U17
  1

  0
TEXT
  5
331
  8
0
 62
     0
 10
-60.156503500502588
 20
-81.54931924781225
 30
0.0
 40
2.9505988023952101
  1
70.00
  7
ARIAL
  0
ENDBLK
  5
333
  8
0
  0
BLOCK
  8
0
  2
*U18
 70
     1
 10
0.0
 20
0.0
 30
0.0
  3
*U18
  1

  0
TEXT
  5
335
  8
0
 62
     0
 10
4.8807312047121068
 20
84.722019002979138
 30
0.0
 40
2.9505988023952101
  1
20.00
  7
ARIAL
  0
ENDBLK
  5
337
  8
0
  0
BLOCK
  8
0
  2
*U19
 70
     1
 10
0.0
 20
0.0
 30
0.0
  3
*U19
  1

  0
TEXT
  5
339
  8
0
 62
     0
 10
-15.11926879528791
 20
84.722019002979138
 30
0.0
 40
2.9505988023952101
  1
20.00
  7
ARIAL
  0
ENDBLK
  5
33B
  8
0
  0
BLOCK
  8
0
  2
*U20
 70
     1
 10
0.0
 20
0.0
 30
0.0
  3
*U20
  1

  0
TEXT
  5
33D
  8
0
 62
     0
 10
39.8555726201078
 20
94.977512540662559
 30
0.0
 40
2.9505988023952101
  1
90.00
  7
ARIAL
  0
ENDBLK
  5
33F
  8
0
  0
BLOCK
  8
0
  2
*U21
 70
     1
 10
0.0
 20
0.0
 30
0.0
  3
*U21
  1

  0
TEXT
  5
341
  8
0
 62
     0
 10
-50.144427379892221
 20
94.977512540662559
 30
0.0
 40
2.9505988023952101
  1
90.00
  7
ARIAL
  0
ENDBLK
  5
343
  8
0
  0
BLOCK
  8
0
  2
*U22
 70
     1
 10
0.0
 20
0.0
 30
0.0
  3
*U22
  1

  0
TEXT
  5
345
  8
0
 62
     0
 10
-6.4295278814814321
 20
-91.196709484052391
 30
0.0
 40
2.9505988023952101
  1
180.00
  7
ARIAL
  0
ENDBLK
  5
347
  8
0
  0
BLOCK
  8
0
  2
*U23
 70
     1
 10
0.0
 20
0.0
 30
0.0
  3
*U23
  1

  0
TEXT
  5
349
  8
0
 62
     0
 10
-99.17429756849404
 20
-2.4992086087027698
 30
0.0
 40
2.9505988023952101
  1
3.00
 50
90.0
  7
ARIAL
  0
ENDBLK
  5
34B
  8
0
  0
BLOCK
  8
0
  2
*U24
 70
     1
 10
0.0
 20
0.0
 30
0.0
  3
*U24
  1

  0
TEXT
  5
34D
  8
0
 62
     0
 10
-90.283302766908122
 20
85.093859829323137
 30
0.0
 40
2.9505988023952101
  1
10.00
  7
ARIAL
  0
ENDBLK
  5
34F
  8
0
  0
BLOCK
  8
0
  2
*U25
 70
     1
 10
0.0
 20
0.0
 30
0.0
  3
*U25
  1

  0
TEXT
  5
351
  8
0
 62
     0
 10
79.716697233091907
 20
85.093859829322966
 30
0.0
 40
2.9505988023952101
  1
10.00
  7
ARIAL
  0
ENDBLK
  5
353
  8
0
  0
ENDSEC
  0
SECTION
  2
ENTITIES
  0
LINE
  5
88
  8
0
 10
-89.999999999999787
 20
0.0000000000006133
 30
0.0
 11
-20.00000000000006
 21
0.0000000000006133
 31
0.0
1001
REVIT
1002
{
1070
     1
1000
326732
1002
}
1002
{
1070
     2
1000
-2002000
1002
}
1002
{
1070
     3
1000
206783
1002
}
  0
LINE
  5
89
  8
0
 10
89.999999999999986
 20
0.0000000000006133
 30
0.0
 11
89.999999999999986
 21
3.0000000000011591
 31
0.0
1001
REVIT
1002
{
1070
     1
1000
326735
1002
}
1002
{
1070
     2
1000
-2002000
1002
}
1002
{
1070
     3
1000
206783
1002
}
  0
LINE
  5
8A
  8
0
 10
79.999999999999986
 20
3.0000000000011591
 30
0.0
 11
89.999999999999986
 21
3.0000000000011591
 31
0.0
1001
REVIT
1002
{
1070
     1
1000
326737
1002
}
1002
{
1070
     2
1000
-2002000
1002
}
1002
{
1070
     3
1000
206783
1002
}
  0
LINE
  5
8B
  8
0
 10
-89.999999999999787
 20
0.0000000000006133
 30
0.0
 11
-89.999999999999787
 21
3.0000000000011591
 31
0.0
1001
REVIT
1002
{
1070
     1
1000
326744
1002
}
1002
{
1070
     2
1000
-2002000
1002
}
1002
{
1070
     3
1000
206783
1002
}
  0
LINE
  5
8C
  8
0
 10
-80.000000000000057
 20
3.0000000000011591
 30
0.0
 11
-89.999999999999787
 21
3.0000000000011591
 31
0.0
1001
REVIT
1002
{
1070
     1
1000
326745
1002
}
1002
{
1070
     2
1000
-2002000
1002
}
1002
{
1070
     3
1000
206783
1002
}
  0
LINE
  5
8D
  8
0
 10
19.999999999999989
 20
0.0000000000006133
 30
0.0
 11
89.999999999999986
 21
0.0000000000006133
 31
0.0
1001
REVIT
1002
{
1070
     1
1000
326758
1002
}
1002
{
1070
     2
1000
-2002000
1002
}
1002
{
1070
     3
1000
206783
1002
}
  0
LINE
  5
8E
  8
0
 10
-20.000000000000039
 20
40.000000000000171
 30
0.0
 11
20.00000000000006
 21
40.000000000000171
 31
0.0
1001
REVIT
1002
{
1070
     1
1000
326761
1002
}
1002
{
1070
     2
1000
-2002000
1002
}
1002
{
1070
     3
1000
206783
1002
}
  0
LINE
  5
8F
  8
0
 10
-20.000000000000039
 20
0.0000000000009137
 30
0.0
 11
-20.000000000000039
 21
40.000000000000171
 31
0.0
1001
REVIT
1002
{
1070
     1
1000
326762
1002
}
1002
{
1070
     2
1000
-2002000
1002
}
1002
{
1070
     3
1000
206783
1002
}
  0
LINE
  5
90
  8
0
 10
20.00000000000006
 20
40.000000000000171
 30
0.0
 11
20.00000000000006
 21
0.0000000000004315
 31
0.0
1001
REVIT
1002
{
1070
     1
1000
326763
1002
}
1002
{
1070
     2
1000
-2002000
1002
}
1002
{
1070
     3
1000
206783
1002
}
  0
LINE
  5
91
  8
0
 10
-21.00000000000005
 20
15.46364774346412
 30
0.0
 11
-21.00000000000005
 21
22.447953564051542
 31
0.0
1001
REVIT
1002
{
1070
     1
1000
326769
1002
}
1002
{
1070
     2
1000
-2000051
1002
}
  0
LINE
  5
92
  8
0
 10
-24.025290127346661
 20
20.226469536334619
 30
0.0
 11
-24.025290127346661
 21
17.685131771181052
 31
0.0
1001
REVIT
1002
{
1070
     1
1000
326770
1002
}
1002
{
1070
     2
1000
-2000051
1002
}
  0
ARC
  5
93
  8
0
 10
-21.697022251039218
 20
17.685131771181052
 30
0.0
 40
2.328267876307434
 50
179.99999999999989
 51
287.41999211024353
1001
REVIT
1002
{
1070
     1
1000
326771
1002
}
1002
{
1070
     2
1000
-2000051
1002
}
  0
ARC
  5
94
  8
0
 10
-21.697022251039218
 20
20.226469536334609
 30
0.0
 40
2.328267876307434
 50
72.58000788975599
 51
179.99999999999969
1001
REVIT
1002
{
1070
     1
1000
326772
1002
}
1002
{
1070
     2
1000
-2000051
1002
}
  0
LINE
  5
95
  8
0
 10
-18.99999999999973
 20
15.46364774346412
 30
0.0
 11
-18.99999999999973
 21
22.447953564051542
 31
0.0
1001
REVIT
1002
{
1070
     1
1000
326773
1002
}
1002
{
1070
     2
1000
-2000051
1002
}
  0
LINE
  5
96
  8
0
 10
-15.974709872653129
 20
20.226469536334619
 30
0.0
 11
-15.974709872653129
 21
17.685131771181052
 31
0.0
1001
REVIT
1002
{
1070
     1
1000
326774
1002
}
1002
{
1070
     2
1000
-2000051
1002
}
  0
ARC
  5
97
  8
0
 10
-18.302977748960561
 20
17.685131771181052
 30
0.0
 40
2.32826787630743
 50
252.5800078897559
 51
0.0000000000000891
1001
REVIT
1002
{
1070
     1
1000
326775
1002
}
1002
{
1070
     2
1000
-2000051
1002
}
  0
ARC
  5
98
  8
0
 10
-18.302977748960561
 20
20.226469536334609
 30
0.0
 40
2.3282678763074371
 50
359.9999999999996
 51
107.4199921102441
1001
REVIT
1002
{
1070
     1
1000
326776
1002
}
1002
{
1070
     2
1000
-2000051
1002
}
  0
LINE
  5
99
  8
0
 10
21.000000000000309
 20
15.46364774346412
 30
0.0
 11
21.000000000000309
 21
22.447953564051542
 31
0.0
1001
REVIT
1002
{
1070
     1
1000
326777
1002
}
1002
{
1070
     2
1000
-2000051
1002
}
  0
LINE
  5
9A
  8
0
 10
24.02529012734691
 20
20.226469536334619
 30
0.0
 11
24.02529012734691
 21
17.685131771181052
 31
0.0
1001
REVIT
1002
{
1070
     1
1000
326778
1002
}
1002
{
1070
     2
1000
-2000051
1002
}
  0
ARC
  5
9B
  8
0
 10
21.697022251039481
 20
17.685131771181052
 30
0.0
 40
2.3282678763074309
 50
252.5800078897559
 51
0.0000000000000763
1001
REVIT
1002
{
1070
     1
1000
326779
1002
}
1002
{
1070
     2
1000
-2000051
1002
}
  0
ARC
  5
9C
  8
0
 10
21.697022251039481
 20
20.226469536334609
 30
0.0
 40
2.328267876307438
 50
359.9999999999996
 51
107.4199921102441
1001
REVIT
1002
{
1070
     1
1000
326780
1002
}
1002
{
1070
     2
1000
-2000051
1002
}
  0
LINE
  5
9D
  8
0
 10
18.999999999999989
 20
15.46364774346412
 30
0.0
 11
18.999999999999989
 21
22.447953564051542
 31
0.0
1001
REVIT
1002
{
1070
     1
1000
326781
1002
}
1002
{
1070
     2
1000
-2000051
1002
}
  0
LINE
  5
9E
  8
0
 10
15.97470987265338
 20
20.226469536334609
 30
0.0
 11
15.97470987265338
 21
17.685131771181052
 31
0.0
1001
REVIT
1002
{
1070
     1
1000
326782
1002
}
1002
{
1070
     2
1000
-2000051
1002
}
  0
ARC
  5
9F
  8
0
 10
18.302977748960821
 20
17.685131771181052
 30
0.0
 40
2.328267876307434
 50
180.00000000000031
 51
287.41999211024421
1001
REVIT
1002
{
1070
     1
1000
326783
1002
}
1002
{
1070
     2
1000
-2000051
1002
}
  0
ARC
  5
A0
  8
0
 10
18.302977748960821
 20
20.226469536334609
 30
0.0
 40
2.32826787630743
 50
72.580007889756189
 51
180.0000000000004
1001
REVIT
1002
{
1070
     1
1000
326784
1002
}
1002
{
1070
     2
1000
-2000051
1002
}
  0
ENDSEC
  0
EOF
