  0
SECTION
  2
HEADER
  9
$ACADVER
  1
AC1009
  9
$INSBASE
 10
0.0
 20
0.0
 30
0.0
  9
$EXTMIN
 10
-46.365601517808969
 20
-57.832660819883998
 30
0.0
  9
$EXTMAX
 10
70.866442088581124
 20
100.0
 30
0.0
  9
$LIMMIN
 10
0.0
 20
0.0
  9
$LIMMAX
 10
12.0
 20
9.0
  9
$ORTHOMODE
 70
     0
  9
$REGENMODE
 70
     1
  9
$FILLMODE
 70
     1
  9
$QTEXTMODE
 70
     0
  9
$MIRRTEXT
 70
     0
  9
$DRAGMODE
 70
     2
  9
$LTSCALE
 40
1.0
  9
$OSMODE
 70
   127
  9
$ATTMODE
 70
     1
  9
$TEXTSIZE
 40
0.2
  9
$TRACEWID
 40
0.05
  9
$TEXTSTYLE
  7
STANDARD
  9
$CLAYER
  8
0
  9
$CELTYPE
  6
BYLAYER
  9
$CECOLOR
 62
   256
  9
$DIMSCALE
 40
1.0
  9
$DIMASZ
 40
0.18
  9
$DIMEXO
 40
0.0625
  9
$DIMDLI
 40
0.38
  9
$DIMRND
 40
0.0
  9
$DIMDLE
 40
0.0
  9
$DIMEXE
 40
0.18
  9
$DIMTP
 40
0.0
  9
$DIMTM
 40
0.0
  9
$DIMTXT
 40
0.18
  9
$DIMCEN
 40
0.09
  9
$DIMTSZ
 40
0.0
  9
$DIMTOL
 70
     0
  9
$DIMLIM
 70
     0
  9
$DIMTIH
 70
     1
  9
$DIMTOH
 70
     1
  9
$DIMSE1
 70
     0
  9
$DIMSE2
 70
     0
  9
$DIMTAD
 70
     0
  9
$DIMZIN
 70
     0
  9
$DIMBLK
  1

  9
$DIMASO
 70
     1
  9
$DIMSHO
 70
     1
  9
$DIMPOST
  1

  9
$DIMAPOST
  1

  9
$DIMALT
 70
     0
  9
$DIMALTD
 70
     2
  9
$DIMALTF
 40
25.399999999999999
  9
$DIMLFAC
 40
1.0
  9
$DIMTOFL
 70
     0
  9
$DIMTVP
 40
0.0
  9
$DIMTIX
 70
     0
  9
$DIMSOXD
 70
     0
  9
$DIMSAH
 70
     0
  9
$DIMBLK1
  1

  9
$DIMBLK2
  1

  9
$DIMSTYLE
  2
STANDARD
  9
$DIMCLRD
 70
     0
  9
$DIMCLRE
 70
     0
  9
$DIMCLRT
 70
     0
  9
$DIMTFAC
 40
1.0
  9
$DIMGAP
 40
0.09
  9
$LUNITS
 70
     2
  9
$LUPREC
 70
     4
  9
$SKETCHINC
 40
0.1
  9
$FILLETRAD
 40
0.0
  9
$AUNITS
 70
     0
  9
$AUPREC
 70
     0
  9
$MENU
  1
.
  9
$ELEVATION
 40
0.0
  9
$PELEVATION
 40
0.0
  9
$THICKNESS
 40
0.0
  9
$LIMCHECK
 70
     0
  9
$BLIPMODE
 70
     0
  9
$CHAMFERA
 40
0.0
  9
$CHAMFERB
 40
0.0
  9
$SKPOLY
 70
     0
  9
$TDCREATE
 40
2457400.8116448382
  9
$TDUPDATE
 40
2457401.0585216209
  9
$TDINDWG
 40
0.0000895486
  9
$TDUSRTIMER
 40
0.0000895486
  9
$USRTIMER
 70
     1
  9
$ANGBASE
 50
0.0
  9
$ANGDIR
 70
     0
  9
$PDMODE
 70
     0
  9
$PDSIZE
 40
0.0
  9
$PLINEWID
 40
0.0
  9
$COORDS
 70
     2
  9
$SPLFRAME
 70
     0
  9
$SPLINETYPE
 70
     6
  9
$SPLINESEGS
 70
     8
  9
$ATTDIA
 70
     1
  9
$ATTREQ
 70
     1
  9
$HANDLING
 70
     1
  9
$HANDSEED
  5
2D4
  9
$SURFTAB1
 70
     6
  9
$SURFTAB2
 70
     6
  9
$SURFTYPE
 70
     6
  9
$SURFU
 70
     6
  9
$SURFV
 70
     6
  9
$UCSNAME
  2

  9
$UCSORG
 10
0.0
 20
0.0
 30
0.0
  9
$UCSXDIR
 10
1.0
 20
0.0
 30
0.0
  9
$UCSYDIR
 10
0.0
 20
1.0
 30
0.0
  9
$PUCSNAME
  2

  9
$PUCSORG
 10
0.0
 20
0.0
 30
0.0
  9
$PUCSXDIR
 10
1.0
 20
0.0
 30
0.0
  9
$PUCSYDIR
 10
0.0
 20
1.0
 30
0.0
  9
$USERI1
 70
     0
  9
$USERI2
 70
     0
  9
$USERI3
 70
     0
  9
$USERI4
 70
     0
  9
$USERI5
 70
     0
  9
$USERR1
 40
0.0
  9
$USERR2
 40
0.0
  9
$USERR3
 40
0.0
  9
$USERR4
 40
0.0
  9
$USERR5
 40
0.0
  9
$WORLDVIEW
 70
     1
  9
$SHADEDGE
 70
     3
  9
$SHADEDIF
 70
    70
  9
$TILEMODE
 70
     1
  9
$MAXACTVP
 70
    64
  9
$PLIMCHECK
 70
     0
  9
$PEXTMIN
 10
0.0
 20
0.0
 30
0.0
  9
$PEXTMAX
 10
0.0
 20
0.0
 30
0.0
  9
$PLIMMIN
 10
0.0
 20
0.0
  9
$PLIMMAX
 10
12.0
 20
9.0
  9
$UNITMODE
 70
     0
  9
$VISRETAIN
 70
     1
  9
$PLINEGEN
 70
     0
  9
$PSLTSCALE
 70
     1
  0
ENDSEC
  0
SECTION
  2
TABLES
  0
TABLE
  2
VPORT
 70
     1
  0
VPORT
  2
*ACTIVE
 70
     0
 10
0.0
 20
0.0
 11
1.0
 21
1.0
 12
126.73547229955091
 22
21.08366959005799
 13
0.0
 23
0.0
 14
1.0
 24
1.0
 15
0.0
 25
0.0
 16
0.0
 26
0.0
 36
1.0
 17
0.0
 27
0.0
 37
0.0
 40
131.45339683249091
 41
1.56986301369863
 42
50.0
 43
0.0
 44
0.0
 50
0.0
 51
0.0
 71
     0
 72
  1000
 73
     1
 74
     3
 75
     0
 76
     0
 77
     0
 78
     0
  0
ENDTAB
  0
TABLE
  2
LTYPE
 70
     1
  0
LTYPE
  2
CONTINUOUS
 70
     0
  3
Solid line
 72
    65
 73
     0
 40
0.0
  0
ENDTAB
  0
TABLE
  2
LAYER
 70
     5
  0
LAYER
  2
0
 70
     0
 62
     7
  6
CONTINUOUS
  0
LAYER
  2
DEFPOINTS
 70
     0
 62
     7
  6
CONTINUOUS
  0
ENDTAB
  0
TABLE
  2
STYLE
 70
     3
  0
STYLE
  2
STANDARD
 70
     0
 40
0.0
 41
1.0
 50
0.0
 71
     0
 42
0.2
  3
txt
  4

  0
STYLE
  2
ARIAL
 70
     0
 40
2.9505988023952101
 41
1.0
 50
0.0
 71
     0
 42
0.2
  3
txt
  4

  0
ENDTAB
  0
TABLE
  2
VIEW
 70
     0
  0
ENDTAB
  0
TABLE
  2
UCS
 70
     0
  0
ENDTAB
  0
TABLE
  2
APPID
 70
     5
  0
APPID
  2
ACAD
 70
     0
  0
APPID
  2
ACADANNOTATIVE
 70
     0
  0
APPID
  2
REVIT
 70
     0
  0
APPID
  2
ACAD_NAV_VCDISPLAY
 70
     0
  0
APPID
  2
ACAD_MLEADERVER
 70
     0
  0
ENDTAB
  0
TABLE
  2
DIMSTYLE
 70
     5
  0
DIMSTYLE
  2
STANDARD
 70
     0
  3

  4

  5

  6

  7

 40
1.0
 41
0.18
 42
0.0625
 43
0.38
 44
0.18
 45
0.0
 46
0.0
 47
0.0
 48
0.0
140
0.18
141
0.09
142
0.0
143
25.399999999999999
144
1.0
145
0.0
146
1.0
147
0.09
 71
     0
 72
     0
 73
     1
 74
     1
 75
     0
 76
     0
 77
     0
 78
     0
170
     0
171
     2
172
     0
173
     0
174
     0
175
     0
176
     0
177
     0
178
     0
  0
DIMSTYLE
  2
LINEAR
 70
     0
  3
<>
  4

  5

  6
OBLIQUE
  7
OBLIQUE
 40
304.80000000000001
 41
0.0065616797900262
 42
0.0065616797900262
 43
0.38
 44
0.0065616797900262
 45
0.01
 46
0.0
 47
0.0
 48
0.0
140
3.0
141
0.09
142
0.0
143
25.399999999999999
144
1.0
145
1.0
146
1.0
147
0.0065616797900262
 71
     0
 72
     0
 73
     0
 74
     0
 75
     0
 76
     0
 77
     1
 78
     0
170
     0
171
     2
172
     1
173
     1
174
     1
175
     0
176
     0
177
     0
178
     0
  0
DIMSTYLE
  2
LINEAR_1
 70
     0
  3
<>
  4

  5

  6
OBLIQUE
  7
OBLIQUE
 40
304.80000000000001
 41
0.0065616797900262
 42
0.0065616797900262
 43
0.38
 44
0.0065616797900262
 45
0.01
 46
0.0
 47
0.0
 48
0.0
140
3.0
141
0.09
142
0.0
143
25.399999999999999
144
1.0
145
1.0
146
1.0
147
0.0065616797900262
 71
     0
 72
     0
 73
     0
 74
     0
 75
     0
 76
     0
 77
     1
 78
     0
170
     0
171
     2
172
     1
173
     1
174
     1
175
     0
176
     0
177
     0
178
     0
  0
DIMSTYLE
  2
ANGULAR
 70
     0
  3
<>
  4

  5

  6
OBLIQUE
  7
OBLIQUE
 40
304.80000000000001
 41
0.0065616797900262
 42
0.0065616797900262
 43
0.38
 44
0.0065616797900262
 45
0.0
 46
0.0
 47
0.0
 48
0.0
140
3.0
141
0.09
142
0.0
143
25.399999999999999
144
1.0
145
1.0
146
1.0
147
0.0065616797900262
 71
     0
 72
     0
 73
     0
 74
     0
 75
     0
 76
     0
 77
     1
 78
     0
170
     0
171
     2
172
     1
173
     1
174
     1
175
     0
176
     0
177
     0
178
     0
  0
ENDTAB
  0
ENDSEC
  0
SECTION
  2
BLOCKS
  0
BLOCK
  8
0
  2
$MODEL_SPACE
 70
     0
 10
0.0
 20
0.0
 30
0.0
  3
$MODEL_SPACE
  1

  0
ENDBLK
  5
72
  8
0
  0
BLOCK
 67
     1
  8
0
  2
$PAPER_SPACE
 70
     0
 10
0.0
 20
0.0
 30
0.0
  3
$PAPER_SPACE
  1

  0
ENDBLK
  5
76
 67
     1
  8
0
  0
BLOCK
  8
0
  2
_OBLIQUE
 70
     0
 10
0.0
 20
0.0
 30
0.0
  3
_OBLIQUE
  1

  0
LINE
  5
A2
  8
0
  6
BYBLOCK
 62
     0
 10
-0.5
 20
-0.5
 30
0.0
 11
0.5
 21
0.5
 31
0.0
  0
ENDBLK
  5
A4
  8
0
  0
BLOCK
  8
0
  2
DIMBLOCK1-REF__LEVEL
 70
     0
 10
0.0
 20
0.0
 30
0.0
  3
DIMBLOCK1-REF__LEVEL
  1

  0
LINE
  5
1FB
  8
0
 62
     0
 10
-39.171370734745537
 20
-0.0000000000000006
 30
0.0
 11
-37.757157172372459
 21
-0.000000000000001
 31
0.0
  0
LINE
  5
1FC
  8
0
 62
     0
 10
-9.8538760524009206
 20
99.0
 30
0.0
 11
-41.757157172372438
 21
99.000000000000014
 31
0.0
  0
LINE
  5
1FD
  8
0
 62
     0
 10
-39.757157172372459
 20
-0.0000000000000004
 30
0.0
 11
-39.757157172372438
 21
99.000000000000014
 31
0.0
  0
INSERT
  5
1FE
  8
0
 62
     0
  2
_OBLIQUE
 10
-39.757157172372459
 20
-0.0000000000000004
 30
0.0
 41
2.0
 42
2.0
 43
2.0
 50
270.0
  0
INSERT
  5
1FF
  8
0
 62
     0
  2
_OBLIQUE
 10
-39.757157172372438
 20
99.000000000000014
 30
0.0
 41
2.0
 42
2.0
 43
2.0
 50
90.0
  0
INSERT
  5
200
  8
0
  2
*U19
 10
0.0
 20
0.0
 30
0.0
  0
POINT
  5
201
  8
DEFPOINTS
 62
     0
 10
-41.171370734745537
 20
0.0
 30
0.0
  0
POINT
  5
202
  8
DEFPOINTS
 62
     0
 10
-7.8538760524009188
 20
99.0
 30
0.0
  0
POINT
  5
203
  8
DEFPOINTS
 62
     0
 10
-39.757157172372438
 20
99.000000000000014
 30
0.0
  0
ENDBLK
  5
9F
  8
0
  0
BLOCK
  8
0
  2
DIMBLOCK2-REF__LEVEL
 70
     0
 10
0.0
 20
0.0
 30
0.0
  3
DIMBLOCK2-REF__LEVEL
  1

  0
LINE
  5
1F2
  8
0
 62
     0
 10
-0.0000000000000001
 20
21.614548591684368
 30
0.0
 11
-0.0000000000000002
 21
20.200335029311269
 31
0.0
  0
LINE
  5
1F3
  8
0
 62
     0
 10
29.999999999999801
 20
1.9999999999998941
 30
0.0
 11
29.999999999999801
 21
24.200335029311269
 31
0.0
  0
LINE
  5
1F4
  8
0
 62
     0
 10
-0.0000000000000001
 20
22.200335029311269
 30
0.0
 11
29.999999999999801
 21
22.200335029311269
 31
0.0
  0
INSERT
  5
1F5
  8
0
  2
*U18
 10
0.0
 20
0.0
 30
0.0
  0
INSERT
  5
1F6
  8
0
 62
     0
  2
_OBLIQUE
 10
-0.0000000000000001
 20
22.200335029311269
 30
0.0
 41
2.0
 42
2.0
 43
2.0
 50
180.0
  0
INSERT
  5
1F7
  8
0
 62
     0
  2
_OBLIQUE
 10
29.999999999999801
 20
22.200335029311269
 30
0.0
 41
2.0
 42
2.0
 43
2.0
  0
POINT
  5
1F8
  8
DEFPOINTS
 62
     0
 10
0.0
 20
23.614548591684368
 30
0.0
  0
POINT
  5
1F9
  8
DEFPOINTS
 62
     0
 10
29.999999999999801
 20
-0.0000000000001057
 30
0.0
  0
POINT
  5
1FA
  8
DEFPOINTS
 62
     0
 10
29.999999999999801
 20
22.200335029311269
 30
0.0
  0
ENDBLK
  5
C0
  8
0
  0
BLOCK
  8
0
  2
DIMBLOCK3-REF__LEVEL
 70
     0
 10
0.0
 20
0.0
 30
0.0
  3
DIMBLOCK3-REF__LEVEL
  1

  0
LINE
  5
1E7
  8
0
 62
     0
 10
31.99999999999979
 20
-10.000000000000201
 30
0.0
 11
58.975352183192349
 21
-10.00000000000021
 31
0.0
  0
LINE
  5
1E8
  8
0
 62
     0
 10
57.56113862081925
 20
-0.0000000000000006
 30
0.0
 11
58.975352183192349
 21
-0.000000000000001
 31
0.0
  0
LINE
  5
1E9
  8
0
 62
     0
 10
56.975352183192342
 20
-10.00000000000021
 30
0.0
 11
56.975352183192342
 21
-12.00000000000021
 31
0.0
  0
LINE
  5
1EA
  8
0
 62
     0
 10
56.975352183192342
 20
-0.0000000000000004
 30
0.0
 11
56.975352183192342
 21
2.0
 31
0.0
  0
LINE
  5
1EB
  8
0
 62
     0
 10
56.975352183192342
 20
-10.00000000000021
 30
0.0
 11
56.975352183192342
 21
-0.0000000000000004
 31
0.0
  0
INSERT
  5
1EC
  8
0
 62
     0
  2
_OBLIQUE
 10
56.975352183192342
 20
-10.00000000000021
 30
0.0
 41
2.0
 42
2.0
 43
2.0
 50
90.0
  0
INSERT
  5
1ED
  8
0
 62
     0
  2
_OBLIQUE
 10
56.975352183192342
 20
-0.0000000000000004
 30
0.0
 41
2.0
 42
2.0
 43
2.0
 50
270.0
  0
INSERT
  5
1EE
  8
0
  2
*U17
 10
0.0
 20
0.0
 30
0.0
  0
POINT
  5
1EF
  8
DEFPOINTS
 62
     0
 10
29.99999999999979
 20
-10.000000000000201
 30
0.0
  0
POINT
  5
1F0
  8
DEFPOINTS
 62
     0
 10
55.56113862081925
 20
0.0
 30
0.0
  0
POINT
  5
1F1
  8
DEFPOINTS
 62
     0
 10
56.975352183192342
 20
-0.0000000000000004
 30
0.0
  0
ENDBLK
  5
DB
  8
0
  0
BLOCK
  8
0
  2
DIMBLOCK4-REF__LEVEL
 70
     0
 10
0.0
 20
0.0
 30
0.0
  3
DIMBLOCK4-REF__LEVEL
  1

  0
LINE
  5
1DE
  8
0
 62
     0
 10
5.0192378864668967
 20
-26.7320508075689
 30
0.0
 11
15.64282667844811
 21
-45.132646353999661
 31
0.0
  0
LINE
  5
1DF
  8
0
 62
     0
 10
30.99999999999978
 20
-11.732050807569079
 30
0.0
 11
41.623588791981
 21
-30.132646353999849
 31
0.0
  0
LINE
  5
1E0
  8
0
 62
     0
 10
14.64282667844811
 20
-43.400595546430793
 30
0.0
 11
40.623588791980993
 21
-28.40059554643096
 31
0.0
  0
INSERT
  5
1E1
  8
0
 62
     0
  2
_OBLIQUE
 10
14.64282667844811
 20
-43.400595546430793
 30
0.0
 41
2.0
 42
2.0
 43
2.0
 50
210.0
  0
INSERT
  5
1E2
  8
0
 62
     0
  2
_OBLIQUE
 10
40.623588791980993
 20
-28.40059554643096
 30
0.0
 41
2.0
 42
2.0
 43
2.0
 50
29.999999999999961
  0
INSERT
  5
1E3
  8
0
  2
*U16
 10
0.0
 20
0.0
 30
0.0
  0
POINT
  5
1E4
  8
DEFPOINTS
 62
     0
 10
4.0192378864668994
 20
-25.000000000000028
 30
0.0
  0
POINT
  5
1E5
  8
DEFPOINTS
 62
     0
 10
29.99999999999979
 20
-10.000000000000201
 30
0.0
  0
POINT
  5
1E6
  8
DEFPOINTS
 62
     0
 10
40.623588791980993
 20
-28.40059554643096
 30
0.0
  0
ENDBLK
  5
F7
  8
0
  0
BLOCK
  8
0
  2
DIMBLOCK5-REF__LEVEL
 70
     0
 10
0.0
 20
0.0
 30
0.0
  3
DIMBLOCK5-REF__LEVEL
  1

  0
LINE
  5
1D4
  8
0
 62
     0
 10
29.999999990478411
 20
-12.000000304800199
 30
0.0
 11
29.99999979592593
 21
-52.866442088581529
 31
0.0
  0
LINE
  5
1D5
  8
0
 62
     0
 10
31.732051065610221
 20
-8.9999998373412886
 30
0.0
 11
67.123427691617039
 21
11.43322126417196
 31
0.0
  0
ARC
  5
1D6
  8
0
 62
     0
 10
29.99999999999979
 20
-10.000000000000201
 30
0.0
 40
40.866442088581337
 50
269.99999972723259
 51
30.000000339362028
  0
INSERT
  5
1D7
  8
0
 62
     0
  2
_OBLIQUE
 10
29.99999980544731
 20
-50.866442088581543
 30
0.0
 41
2.0
 42
2.0
 43
2.0
 50
179.99999972723251
  0
INSERT
  5
1D8
  8
0
 62
     0
  2
_OBLIQUE
 10
65.391376889971156
 20
10.43322125391305
 30
0.0
 41
2.0
 42
2.0
 43
2.0
 50
120.0000003393621
  0
INSERT
  5
1D9
  8
0
  2
*U15
 10
0.0
 20
0.0
 30
0.0
  0
POINT
  5
1DA
  8
DEFPOINTS
 62
     0
 10
29.99999999999979
 20
-10.000000000000201
 30
0.0
  0
POINT
  5
1DB
  8
DEFPOINTS
 62
     0
 10
29.99999999999979
 20
-10.000000304800199
 30
0.0
  0
POINT
  5
1DC
  8
DEFPOINTS
 62
     0
 10
30.000000263964331
 20
-9.9999998476001988
 30
0.0
  0
POINT
  5
1DD
  8
DEFPOINTS
 62
     0
 10
56.268442588962479
 20
-41.305510903509543
 30
0.0
  0
ENDBLK
  5
113
  8
0
  0
BLOCK
  8
0
  2
DIMBLOCK6-REF__LEVEL
 70
     0
 10
0.0
 20
0.0
 30
0.0
  3
DIMBLOCK6-REF__LEVEL
  1

  0
LINE
  5
1CB
  8
0
 62
     0
 10
-28.252412233541168
 20
-22.38939548393693
 30
0.0
 11
-43.623324673588783
 21
-42.787285241082742
 31
0.0
  0
LINE
  5
1CC
  8
0
 62
     0
 10
-8.2865244823588906
 20
-37.434771062738179
 30
0.0
 11
-23.6574369224065
 21
-57.832660819883998
 31
0.0
  0
LINE
  5
1CD
  8
0
 62
     0
 10
-42.419694627284677
 20
-41.190014220988161
 30
0.0
 11
-22.453806876102409
 21
-56.235389799789417
 31
0.0
  0
INSERT
  5
1CE
  8
0
 62
     0
  2
_OBLIQUE
 10
-42.419694627284677
 20
-41.190014220988161
 30
0.0
 41
2.0
 42
2.0
 43
2.0
 50
142.9999999999998
  0
INSERT
  5
1CF
  8
0
 62
     0
  2
_OBLIQUE
 10
-22.453806876102409
 20
-56.235389799789417
 30
0.0
 41
2.0
 42
2.0
 43
2.0
 50
322.99999999999977
  0
INSERT
  5
1D0
  8
0
  2
*U14
 10
0.0
 20
0.0
 30
0.0
  0
POINT
  5
1D1
  8
DEFPOINTS
 62
     0
 10
-27.04878218723707
 20
-20.792124463842349
 30
0.0
  0
POINT
  5
1D2
  8
DEFPOINTS
 62
     0
 10
-7.082894436054791
 20
-35.837500042643597
 30
0.0
  0
POINT
  5
1D3
  8
DEFPOINTS
 62
     0
 10
-22.453806876102409
 20
-56.235389799789417
 30
0.0
  0
ENDBLK
  5
12F
  8
0
  0
BLOCK
  8
0
  2
DIMBLOCK7-REF__LEVEL
 70
     0
 10
0.0
 20
0.0
 30
0.0
  3
DIMBLOCK7-REF__LEVEL
  1

  0
LINE
  5
1C0
  8
0
 62
     0
 10
-11.86091971771322
 20
-33.869953044627422
 30
0.0
 11
-16.261295102195991
 21
-39.709448411791179
 31
0.0
  0
LINE
  5
1C1
  8
0
 62
     0
 10
-8.2865244823588924
 20
-37.434771062738179
 30
0.0
 11
-12.26811755195954
 21
-42.718523527551419
 31
0.0
  0
LINE
  5
1C2
  8
0
 62
     0
 10
-15.05766505589189
 20
-38.112177391696598
 30
0.0
 11
-16.65493607598647
 21
-36.908547345392499
 31
0.0
  0
LINE
  5
1C3
  8
0
 62
     0
 10
-11.064487505655441
 20
-41.12125250745683
 30
0.0
 11
-9.467216485560856
 21
-42.324882553760929
 31
0.0
  0
LINE
  5
1C4
  8
0
 62
     0
 10
-15.05766505589189
 20
-38.112177391696598
 30
0.0
 11
-11.064487505655441
 21
-41.12125250745683
 31
0.0
  0
INSERT
  5
1C5
  8
0
 62
     0
  2
_OBLIQUE
 10
-15.05766505589189
 20
-38.112177391696598
 30
0.0
 41
2.0
 42
2.0
 43
2.0
 50
322.99999999999989
  0
INSERT
  5
1C6
  8
0
 62
     0
  2
_OBLIQUE
 10
-11.064487505655441
 20
-41.12125250745683
 30
0.0
 41
2.0
 42
2.0
 43
2.0
 50
142.99999999999989
  0
INSERT
  5
1C7
  8
0
  2
*U13
 10
0.0
 20
0.0
 30
0.0
  0
POINT
  5
1C8
  8
DEFPOINTS
 62
     0
 10
-10.657289671409121
 20
-32.272682024532827
 30
0.0
  0
POINT
  5
1C9
  8
DEFPOINTS
 62
     0
 10
-7.0828944360547927
 20
-35.837500042643597
 30
0.0
  0
POINT
  5
1CA
  8
DEFPOINTS
 62
     0
 10
-11.064487505655441
 20
-41.12125250745683
 30
0.0
  0
ENDBLK
  5
149
  8
0
  0
BLOCK
  8
0
  2
DIMBLOCK8-REF__LEVEL
 70
     0
 10
0.0
 20
0.0
 30
0.0
  3
DIMBLOCK8-REF__LEVEL
  1

  0
LINE
  5
1B6
  8
0
 62
     0
 10
12.774595852487909
 20
-19.945091721466259
 30
0.0
 11
9.3104942373501487
 21
-21.945091721466259
 31
0.0
  0
LINE
  5
1B7
  8
0
 62
     0
 10
-14.04278609906223
 20
-18.304870375733088
 30
0.0
 11
-10.848244058873069
 21
-20.7121304683413
 31
0.0
  0
ARC
  5
1B8
  8
0
 62
     0
 10
-1.1769145362400431
 20
-28.000000000000199
 30
0.0
 40
14.10981655706788
 50
29.999999999999989
 51
142.99999999999969
  0
INSERT
  5
1B9
  8
0
 62
     0
  2
_OBLIQUE
 10
11.042545044919031
 20
-20.945091721466259
 30
0.0
 41
2.0
 42
2.0
 43
2.0
 50
300.0
  0
INSERT
  5
1BA
  8
0
 62
     0
  2
_OBLIQUE
 10
-12.445515078967651
 20
-19.508500422037201
 30
0.0
 41
2.0
 42
2.0
 43
2.0
 50
232.99999999999969
  0
INSERT
  5
1BB
  8
0
  2
*U12
 10
0.0
 20
0.0
 30
0.0
  0
POINT
  5
1BC
  8
DEFPOINTS
 62
     0
 10
-1.1769145362400431
 20
-28.000000000000199
 30
0.0
  0
POINT
  5
1BD
  8
DEFPOINTS
 62
     0
 10
14.506646660056781
 20
-18.945091721466259
 30
0.0
  0
POINT
  5
1BE
  8
DEFPOINTS
 62
     0
 10
-15.64005711915682
 20
-17.10124032942899
 30
0.0
  0
POINT
  5
1BF
  8
DEFPOINTS
 62
     0
 10
4.1847361828220473
 20
-14.94857766981381
 30
0.0
  0
ENDBLK
  5
167
  8
0
  0
BLOCK
  8
0
  2
DIMBLOCK9-REF__LEVEL
 70
     0
 10
0.0
 20
0.0
 30
0.0
  3
DIMBLOCK9-REF__LEVEL
  1

  0
LINE
  5
1AD
  8
0
 62
     0
 10
-28.252412233541168
 20
-22.38939548393693
 30
0.0
 11
-37.404247799639492
 21
-34.534291480249131
 31
0.0
  0
LINE
  5
1AE
  8
0
 62
     0
 10
-11.86091971771322
 20
-33.869953044627422
 30
0.0
 11
-21.431537598693659
 21
-46.57059194329014
 31
0.0
  0
LINE
  5
1AF
  8
0
 62
     0
 10
-36.200617753335393
 20
-32.93702046015455
 30
0.0
 11
-20.22790755238956
 21
-44.973320923195551
 31
0.0
  0
INSERT
  5
1B0
  8
0
 62
     0
  2
_OBLIQUE
 10
-36.200617753335393
 20
-32.93702046015455
 30
0.0
 41
2.0
 42
2.0
 43
2.0
 50
142.9999999999998
  0
INSERT
  5
1B1
  8
0
 62
     0
  2
_OBLIQUE
 10
-20.22790755238956
 20
-44.973320923195551
 30
0.0
 41
2.0
 42
2.0
 43
2.0
 50
322.99999999999977
  0
INSERT
  5
1B2
  8
0
  2
*U11
 10
0.0
 20
0.0
 30
0.0
  0
POINT
  5
1B3
  8
DEFPOINTS
 62
     0
 10
-27.04878218723707
 20
-20.792124463842349
 30
0.0
  0
POINT
  5
1B4
  8
DEFPOINTS
 62
     0
 10
-10.657289671409121
 20
-32.272682024532827
 30
0.0
  0
POINT
  5
1B5
  8
DEFPOINTS
 62
     0
 10
-20.22790755238956
 20
-44.973320923195551
 30
0.0
  0
ENDBLK
  5
182
  8
0
  0
BLOCK
  8
0
  2
*U11
 70
     1
 10
0.0
 20
0.0
 30
0.0
  3
*U11
  1

  0
TEXT
  5
2B1
  8
0
 62
     0
 10
-31.06514702819787
 20
-34.23203951555616
 30
0.0
 40
2.9505988023952101
  1
20.00
 50
322.99999999999977
  7
ARIAL
  0
ENDBLK
  5
2B3
  8
0
  0
BLOCK
  8
0
  2
*U12
 70
     1
 10
0.0
 20
0.0
 30
0.0
  3
*U12
  1

  0
TEXT
  5
2B5
  8
0
 62
     0
 10
-7.3918942231984603
 20
-11.42147780776658
 30
0.0
 40
2.9505988023952101
  1
113.00°
 50
356.49999999999989
  7
ARIAL
  0
ENDBLK
  5
2B7
  8
0
  0
BLOCK
  8
0
  2
*U13
 70
     1
 10
0.0
 20
0.0
 30
0.0
  3
*U13
  1

  0
TEXT
  5
2B9
  8
0
 62
     0
 10
-15.016637116150561
 20
-35.568258453145923
 30
0.0
 40
2.9505988023952101
  1
5.00
 50
322.99999999999989
  7
ARIAL
  0
ENDBLK
  5
2BB
  8
0
  0
BLOCK
  8
0
  2
*U14
 70
     1
 10
0.0
 20
0.0
 30
0.0
  3
*U14
  1

  0
TEXT
  5
2BD
  8
0
 62
     0
 10
-35.287635127028942
 20
-43.989570834269891
 30
0.0
 40
2.9505988023952101
  1
25.00
 50
322.99999999999977
  7
ARIAL
  0
ENDBLK
  5
2BF
  8
0
  0
BLOCK
  8
0
  2
*U15
 70
     1
 10
0.0
 20
0.0
 30
0.0
  3
*U15
  1

  0
TEXT
  5
2C1
  8
0
 62
     0
 10
60.002780118075108
 20
-35.653834172672489
 30
0.0
 40
2.9505988023952101
  1
120.00°
 50
59.999999949818161
  7
ARIAL
  0
ENDBLK
  5
2C3
  8
0
  0
BLOCK
  8
0
  2
*U16
 70
     1
 10
0.0
 20
0.0
 30
0.0
  3
*U16
  1

  0
TEXT
  5
2C5
  8
0
 62
     0
 10
22.147947459226941
 20
-36.69071350223404
 30
0.0
 40
2.9505988023952101
  1
30.00
 50
29.999999999999961
  7
ARIAL
  0
ENDBLK
  5
2C7
  8
0
  0
BLOCK
  8
0
  2
*U17
 70
     1
 10
0.0
 20
0.0
 30
0.0
  3
*U17
  1

  0
TEXT
  5
2C9
  8
0
 62
     0
 10
54.918996953678658
 20
-10.283302766908299
 30
0.0
 40
2.9505988023952101
  1
10.00
 50
90.0
  7
ARIAL
  0
ENDBLK
  5
2CB
  8
0
  0
BLOCK
  8
0
  2
*U18
 70
     1
 10
0.0
 20
0.0
 30
0.0
  3
*U18
  1

  0
TEXT
  5
2CD
  8
0
 62
     0
 10
12.560064166600879
 20
26.711064210857501
 30
0.0
 40
2.9505988023952101
  1
30.00
  7
ARIAL
  0
ENDBLK
  5
2CF
  8
0
  0
BLOCK
  8
0
  2
*U19
 70
     1
 10
0.0
 20
0.0
 30
0.0
  3
*U19
  1

  0
TEXT
  5
2D1
  8
0
 62
     0
 10
-41.813512401886143
 20
44.355572620107672
 30
0.0
 40
2.9505988023952101
  1
99.00
 50
90.0
  7
ARIAL
  0
ENDBLK
  5
2D3
  8
0
  0
ENDSEC
  0
SECTION
  2
ENTITIES
  0
LINE
  5
88
  8
0
 10
-0.0000000000000162
 20
99.0
 30
0.0
 11
-0.0000000000000162
 21
-0.0000000000000169
 31
0.0
1001
REVIT
1002
{
1070
     1
1000
347795
1002
}
1002
{
1070
     2
1000
-2002000
1002
}
1002
{
1070
     3
1000
206783
1002
}
  0
LINE
  5
89
  8
0
 10
-0.0000000000000159
 20
-0.0000000000000088
 30
0.0
 11
29.999999999999801
 21
-0.0000000000001072
 31
0.0
1001
REVIT
1002
{
1070
     1
1000
347796
1002
}
1002
{
1070
     2
1000
-2002000
1002
}
1002
{
1070
     3
1000
206783
1002
}
  0
LINE
  5
8A
  8
0
 10
29.999999999999801
 20
-0.0000000000001071
 30
0.0
 11
29.99999999999979
 21
-10.000000000000201
 31
0.0
1001
REVIT
1002
{
1070
     1
1000
347797
1002
}
1002
{
1070
     2
1000
-2002000
1002
}
1002
{
1070
     3
1000
206783
1002
}
  0
LINE
  5
8B
  8
0
 10
-5.1580490011015359
 20
-25.0
 30
0.0
 11
-21.142802287422281
 21
-12.95462442119895
 31
0.0
1001
REVIT
1002
{
1070
     1
1000
347808
1002
}
1002
{
1070
     2
1000
-2002000
1002
}
1002
{
1070
     3
1000
206783
1002
}
  0
LINE
  5
8C
  8
0
 10
29.99999999999979
 20
-10.000000000000201
 30
0.0
 11
4.0192378864668967
 21
-25.000000000000028
 31
0.0
1001
REVIT
1002
{
1070
     1
1000
347798
1002
}
1002
{
1070
     2
1000
-2002000
1002
}
1002
{
1070
     3
1000
206783
1002
}
  0
LINE
  5
8D
  8
0
 10
-21.142802287422288
 20
99.000000000000071
 30
0.0
 11
-21.142802287422288
 21
-12.95462442119894
 31
0.0
1001
REVIT
1002
{
1070
     1
1000
347836
1002
}
1002
{
1070
     2
1000
-2002000
1002
}
1002
{
1070
     3
1000
206783
1002
}
  0
LINE
  5
8E
  8
0
 10
-21.142802287422288
 20
99.000000000000071
 30
0.0
 11
-0.0000000000000169
 21
99.0
 31
0.0
1001
REVIT
1002
{
1070
     1
1000
348062
1002
}
1002
{
1070
     2
1000
-2002000
1002
}
1002
{
1070
     3
1000
206783
1002
}
  0
LINE
  5
8F
  8
0
 10
4.0192378864669136
 20
-25.000000000000021
 30
0.0
 11
-5.1580490011015394
 21
-25.0
 31
0.0
1001
REVIT
1002
{
1070
     1
1000
348432
1002
}
1002
{
1070
     2
1000
-2002000
1002
}
1002
{
1070
     3
1000
206783
1002
}
  0
ENDSEC
  0
EOF
